ISO-10303-21;
HEADER;
FILE_DESCRIPTION (( 'STEP AP203' ),
    '1' );
FILE_NAME ('5c7a.STEP',
    '2022-06-20T09:35:51',
    ( '' ),
    ( '' ),
    'SwSTEP 2.0',
    'SolidWorks 2019',
    '' );
FILE_SCHEMA (( 'CONFIG_CONTROL_DESIGN' ));
ENDSEC;

DATA;
#1 = DIRECTION ( 'NONE',  ( 1.000000000000000000, 0.000000000000000000, 0.000000000000000000 ) ) ;
#2 = DIRECTION ( 'NONE',  ( 1.000000000000000000, 0.000000000000000000, 0.000000000000000000 ) ) ;
#3 = AXIS2_PLACEMENT_3D ( 'NONE', #190, #142, #122 ) ;
#4 = LINE ( 'NONE', #41, #31 ) ;
#5 = APPLICATION_CONTEXT ( 'configuration controlled 3d designs of mechanical parts and assemblies' ) ;
#6 = DIRECTION ( 'NONE',  ( -0.000000000000000000, -0.000000000000000000, -1.000000000000000000 ) ) ;
#7 = EDGE_CURVE ( 'NONE', #150, #260, #274, .T. ) ;
#8 = ORIENTED_EDGE ( 'NONE', *, *, #103, .T. ) ;
#9 = APPLICATION_PROTOCOL_DEFINITION ( 'international standard', 'config_control_design', 1994, #5 ) ;
#10 = ORIENTED_EDGE ( 'NONE', *, *, #88, .T. ) ;
#11 = ORIENTED_EDGE ( 'NONE', *, *, #94, .F. ) ;
#12 = PERSON_AND_ORGANIZATION ( #165, #115 ) ;
#13 = EDGE_LOOP ( 'NONE', ( #100, #97 ) ) ;
#14 = CYLINDRICAL_SURFACE ( 'NONE', #44, 5.500000000000000000 ) ;
#15 = ORIENTED_EDGE ( 'NONE', *, *, #40, .T. ) ;
#16 = AXIS2_PLACEMENT_3D ( 'NONE', #107, #157, #249 ) ;
#17 = AXIS2_PLACEMENT_3D ( 'NONE', #259, #47, #1 ) ;
#18 = ADVANCED_FACE ( 'NONE', ( #297 ), #110, .F. ) ;
#19 = PERSON_AND_ORGANIZATION ( #165, #115 ) ;
#20 = CARTESIAN_POINT ( 'NONE',  ( 5.500000000000000000, 6.735557395310442023E-16, 205.0000000000000284 ) ) ;
#21 = APPROVAL_DATE_TIME ( #163, #191 ) ;
#22 = CARTESIAN_POINT ( 'NONE',  ( 0.000000000000000000, 0.000000000000000000, 5.000000000000000000 ) ) ;
#23 = CARTESIAN_POINT ( 'NONE',  ( -5.500000000000000000, 0.000000000000000000, 205.0000000000000284 ) ) ;
#24 = PRODUCT_DEFINITION_SHAPE ( 'NONE', 'NONE',  #216 ) ;
#25 = LINE ( 'NONE', #233, #67 ) ;
#26 = MANIFOLD_SOLID_BREP ( 'Zaoblit1', #137 ) ;
#27 = DIRECTION ( 'NONE',  ( 0.000000000000000000, 0.000000000000000000, 1.000000000000000000 ) ) ;
#28 = CC_DESIGN_DATE_AND_TIME_ASSIGNMENT ( #279, #180, ( #305 ) ) ;
#29 = CYLINDRICAL_SURFACE ( 'NONE', #93, 8.000000000000000000 ) ;
#30 = DIRECTION ( 'NONE',  ( -1.000000000000000000, 0.000000000000000000, 0.000000000000000000 ) ) ;
#31 = VECTOR ( 'NONE', #66, 1000.000000000000000 ) ;
#32 = APPROVAL_PERSON_ORGANIZATION ( #184, #174, #87 ) ;
#33 = DIRECTION ( 'NONE',  ( 1.000000000000000000, 0.000000000000000000, -0.000000000000000000 ) ) ;
#34 = EDGE_LOOP ( 'NONE', ( #172, #199, #57, #105 ) ) ;
#35 = EDGE_CURVE ( 'NONE', #260, #150, #85, .T. ) ;
#36 = ORIENTED_EDGE ( 'NONE', *, *, #35, .T. ) ;
#37 = CALENDAR_DATE ( 2022, 20, 6 ) ;
#38 = DIRECTION ( 'NONE',  ( 1.000000000000000000, 0.000000000000000000, 0.000000000000000000 ) ) ;
#39 = DATE_AND_TIME ( #134, #104 ) ;
#40 = EDGE_CURVE ( 'NONE', #75, #228, #187, .T. ) ;
#41 = CARTESIAN_POINT ( 'NONE',  ( 5.500000000000000000, 6.735557395310442023E-16, 205.0000000000000284 ) ) ;
#42 = CIRCLE ( 'NONE', #159, 5.699999999999999289 ) ;
#43 = FACE_OUTER_BOUND ( 'NONE', #131, .T. ) ;
#44 = AXIS2_PLACEMENT_3D ( 'NONE', #203, #268, #193 ) ;
#45 = LOCAL_TIME ( 11, 35, 51.00000000000000000, #303 ) ;
#46 = CARTESIAN_POINT ( 'NONE',  ( 0.000000000000000000, 0.000000000000000000, 0.000000000000000000 ) ) ;
#47 = DIRECTION ( 'NONE',  ( -0.000000000000000000, -0.000000000000000000, -1.000000000000000000 ) ) ;
#48 = CARTESIAN_POINT ( 'NONE',  ( -8.000000000000000000, 0.000000000000000000, 5.000000000000000000 ) ) ;
#49 = EDGE_CURVE ( 'NONE', #292, #152, #42, .T. ) ;
#50 = VERTEX_POINT ( 'NONE', #181 ) ;
#51 = FACE_OUTER_BOUND ( 'NONE', #155, .T. ) ;
#52 = VERTEX_POINT ( 'NONE', #78 ) ;
#53 = AXIS2_PLACEMENT_3D ( 'NONE', #141, #119, #92 ) ;
#54 = ORIENTED_EDGE ( 'NONE', *, *, #225, .F. ) ;
#55 = ADVANCED_FACE ( 'NONE', ( #43 ), #215, .T. ) ;
#56 = APPROVAL_ROLE ( '' ) ;
#57 = ORIENTED_EDGE ( 'NONE', *, *, #94, .T. ) ;
#58 = PRODUCT_DEFINITION_FORMATION_WITH_SPECIFIED_SOURCE ( 'LIBOVOLNÝ', '', #212, .NOT_KNOWN. ) ;
#59 = DIRECTION ( 'NONE',  ( 1.000000000000000000, 0.000000000000000000, 0.000000000000000000 ) ) ;
#60 = ORIENTED_EDGE ( 'NONE', *, *, #72, .F. ) ;
#61 = ADVANCED_FACE ( 'NONE', ( #73 ), #144, .F. ) ;
#62 = PERSON_AND_ORGANIZATION ( #165, #115 ) ;
#63 = AXIS2_PLACEMENT_3D ( 'NONE', #128, #289, #59 ) ;
#64 = CARTESIAN_POINT ( 'NONE',  ( 0.000000000000000000, 0.000000000000000000, 205.0000000000000284 ) ) ;
#65 = APPROVAL_DATE_TIME ( #39, #174 ) ;
#66 = DIRECTION ( 'NONE',  ( -0.000000000000000000, -0.000000000000000000, -1.000000000000000000 ) ) ;
#67 = VECTOR ( 'NONE', #120, 1000.000000000000000 ) ;
#68 = CALENDAR_DATE ( 2022, 20, 6 ) ;
#69 = DIRECTION ( 'NONE',  ( 1.000000000000000000, 0.000000000000000000, -0.000000000000000000 ) ) ;
#70 = AXIS2_PLACEMENT_3D ( 'NONE', #64, #27, #167 ) ;
#71 = CARTESIAN_POINT ( 'NONE',  ( 5.500000000000000000, 6.735557395310442023E-16, 5.200000000000009948 ) ) ;
#72 = EDGE_CURVE ( 'NONE', #263, #50, #295, .T. ) ;
#73 = FACE_OUTER_BOUND ( 'NONE', #13, .T. ) ;
#74 = DATE_TIME_ROLE ( 'creation_date' ) ;
#75 = VERTEX_POINT ( 'NONE', #307 ) ;
#76 = ORIENTED_EDGE ( 'NONE', *, *, #72, .T. ) ;
#77 = DIRECTION ( 'NONE',  ( 1.000000000000000000, 0.000000000000000000, 0.000000000000000000 ) ) ;
#78 = CARTESIAN_POINT ( 'NONE',  ( -5.500000000000000000, 0.000000000000000000, 205.0000000000000284 ) ) ;
#79 = EDGE_CURVE ( 'NONE', #150, #228, #25, .T. ) ;
#80 = ORIENTED_EDGE ( 'NONE', *, *, #79, .F. ) ;
#81 = LOCAL_TIME ( 11, 35, 51.00000000000000000, #248 ) ;
#82 = PERSON_AND_ORGANIZATION_ROLE ( 'creator' ) ;
#83 = CARTESIAN_POINT ( 'NONE',  ( 0.000000000000000000, 0.000000000000000000, 5.200000000000009948 ) ) ;
#84 = DIRECTION ( 'NONE',  ( 1.000000000000000000, 0.000000000000000000, 0.000000000000000000 ) ) ;
#85 = CIRCLE ( 'NONE', #290, 8.000000000000000000 ) ;
#86 = TOROIDAL_SURFACE ( 'NONE', #63, 5.699999999999999289, 0.2000000000000000111 ) ;
#87 = APPROVAL_ROLE ( '' ) ;
#88 = EDGE_CURVE ( 'NONE', #260, #75, #238, .T. ) ;
#89 = DIRECTION ( 'NONE',  ( -1.000000000000000000, 0.000000000000000000, 0.000000000000000000 ) ) ;
#90 = PERSON_AND_ORGANIZATION ( #165, #115 ) ;
#91 = DIRECTION ( 'NONE',  ( 0.000000000000000000, 0.000000000000000000, 1.000000000000000000 ) ) ;
#92 = DIRECTION ( 'NONE',  ( 1.000000000000000000, 0.000000000000000000, 0.000000000000000000 ) ) ;
#93 = AXIS2_PLACEMENT_3D ( 'NONE', #101, #229, #30 ) ;
#94 = EDGE_CURVE ( 'NONE', #52, #50, #116, .T. ) ;
#95 = FACE_OUTER_BOUND ( 'NONE', #222, .T. ) ;
#96 = DIRECTION ( 'NONE',  ( 0.000000000000000000, 0.000000000000000000, 1.000000000000000000 ) ) ;
#97 = ORIENTED_EDGE ( 'NONE', *, *, #239, .F. ) ;
#98 = APPROVAL_DATE_TIME ( #108, #254 ) ;
#99 = CC_DESIGN_APPROVAL ( #174, ( #305 ) ) ;
#100 = ORIENTED_EDGE ( 'NONE', *, *, #40, .F. ) ;
#101 = CARTESIAN_POINT ( 'NONE',  ( 0.000000000000000000, 0.000000000000000000, 5.000000000000000000 ) ) ;
#102 =( GEOMETRIC_REPRESENTATION_CONTEXT ( 3 ) GLOBAL_UNCERTAINTY_ASSIGNED_CONTEXT ( ( #301 ) ) GLOBAL_UNIT_ASSIGNED_CONTEXT ( ( #241, #125, #272 ) ) REPRESENTATION_CONTEXT ( 'NONE', 'WORKASPACE' ) );
#103 = EDGE_CURVE ( 'NONE', #175, #52, #197, .T. ) ;
#104 = LOCAL_TIME ( 11, 35, 51.00000000000000000, #186 ) ;
#105 = ORIENTED_EDGE ( 'NONE', *, *, #151, .T. ) ;
#106 = MECHANICAL_CONTEXT ( 'NONE', #158, 'mechanical' ) ;
#107 = CARTESIAN_POINT ( 'NONE',  ( 0.000000000000000000, 0.000000000000000000, 5.000000000000000000 ) ) ;
#108 = DATE_AND_TIME ( #227, #81 ) ;
#109 = ORIENTED_EDGE ( 'NONE', *, *, #151, .F. ) ;
#110 = TOROIDAL_SURFACE ( 'NONE', #232, 5.699999999999999289, 0.2000000000000000111 ) ;
#111 = PERSON_AND_ORGANIZATION ( #165, #115 ) ;
#112 = CARTESIAN_POINT ( 'NONE',  ( 0.000000000000000000, 0.000000000000000000, 0.000000000000000000 ) ) ;
#113 = ADVANCED_FACE ( 'NONE', ( #138, #95 ), #189, .T. ) ;
#114 = PERSON_AND_ORGANIZATION_ROLE ( 'design_supplier' ) ;
#115 = ORGANIZATION ( 'NEURÈENÝ', 'NEURÈENÝ', '' ) ;
#116 = LINE ( 'NONE', #23, #294 ) ;
#117 = CALENDAR_DATE ( 2022, 20, 6 ) ;
#118 = CARTESIAN_POINT ( 'NONE',  ( 0.000000000000000000, 0.000000000000000000, 5.200000000000009948 ) ) ;
#119 = DIRECTION ( 'NONE',  ( 0.000000000000000000, 0.000000000000000000, 1.000000000000000000 ) ) ;
#120 = DIRECTION ( 'NONE',  ( -0.000000000000000000, -0.000000000000000000, -1.000000000000000000 ) ) ;
#121 = AXIS2_PLACEMENT_3D ( 'NONE', #255, #139, #236 ) ;
#122 = DIRECTION ( 'NONE',  ( 0.000000000000000000, 0.000000000000000000, -1.000000000000000000 ) ) ;
#123 = ORIENTED_EDGE ( 'NONE', *, *, #88, .F. ) ;
#124 = AXIS2_PLACEMENT_3D ( 'NONE', #162, #283, #89 ) ;
#125 =( NAMED_UNIT ( * ) PLANE_ANGLE_UNIT ( ) SI_UNIT ( $, .RADIAN. ) );
#126 = ORIENTED_EDGE ( 'NONE', *, *, #7, .T. ) ;
#127 = EDGE_CURVE ( 'NONE', #263, #152, #298, .T. ) ;
#128 = CARTESIAN_POINT ( 'NONE',  ( 0.000000000000000000, 0.000000000000000000, 5.200000000000009948 ) ) ;
#129 = CARTESIAN_POINT ( 'NONE',  ( 0.000000000000000000, 0.000000000000000000, 5.000000000000000000 ) ) ;
#130 = FACE_OUTER_BOUND ( 'NONE', #244, .T. ) ;
#131 = EDGE_LOOP ( 'NONE', ( #286, #177, #76, #11 ) ) ;
#132 = DATE_AND_TIME ( #37, #154 ) ;
#133 = DIRECTION ( 'NONE',  ( 0.000000000000000000, 0.000000000000000000, 1.000000000000000000 ) ) ;
#134 = CALENDAR_DATE ( 2022, 20, 6 ) ;
#135 = DESIGN_CONTEXT ( 'detailed design', #5, 'design' ) ;
#136 = CC_DESIGN_PERSON_AND_ORGANIZATION_ASSIGNMENT ( #19, #183, ( #305 ) ) ;
#137 = CLOSED_SHELL ( 'NONE', ( #18, #55, #291, #206, #113, #61, #276, #302, #287 ) ) ;
#138 = FACE_BOUND ( 'NONE', #148, .T. ) ;
#139 = DIRECTION ( 'NONE',  ( 1.224646799147353207E-16, 1.000000000000000000, -0.000000000000000000 ) ) ;
#140 = APPROVAL_STATUS ( 'not_yet_approved' ) ;
#141 = CARTESIAN_POINT ( 'NONE',  ( 0.000000000000000000, 0.000000000000000000, 205.0000000000000284 ) ) ;
#142 = DIRECTION ( 'NONE',  ( 0.000000000000000000, -1.000000000000000000, 0.000000000000000000 ) ) ;
#143 = ADVANCED_BREP_SHAPE_REPRESENTATION ( '5c7a', ( #26, #304 ), #102 ) ;
#144 = PLANE ( 'NONE',  #219 ) ;
#145 = AXIS2_PLACEMENT_3D ( 'NONE', #284, #146, #33 ) ;
#146 = DIRECTION ( 'NONE',  ( 0.000000000000000000, 0.000000000000000000, 1.000000000000000000 ) ) ;
#147 = CC_DESIGN_PERSON_AND_ORGANIZATION_ASSIGNMENT ( #62, #207, ( #58 ) ) ;
#148 = EDGE_LOOP ( 'NONE', ( #168, #293 ) ) ;
#149 = FACE_OUTER_BOUND ( 'NONE', #34, .T. ) ;
#150 = VERTEX_POINT ( 'NONE', #188 ) ;
#151 = EDGE_CURVE ( 'NONE', #50, #263, #224, .T. ) ;
#152 = VERTEX_POINT ( 'NONE', #253 ) ;
#153 = ORIENTED_EDGE ( 'NONE', *, *, #257, .T. ) ;
#154 = LOCAL_TIME ( 11, 35, 51.00000000000000000, #250 ) ;
#155 = EDGE_LOOP ( 'NONE', ( #54, #60, #220, #288 ) ) ;
#156 = FACE_OUTER_BOUND ( 'NONE', #247, .T. ) ;
#157 = DIRECTION ( 'NONE',  ( 0.000000000000000000, 0.000000000000000000, 1.000000000000000000 ) ) ;
#158 = APPLICATION_CONTEXT ( 'configuration controlled 3d designs of mechanical parts and assemblies' ) ;
#159 = AXIS2_PLACEMENT_3D ( 'NONE', #230, #205, #84 ) ;
#160 = EDGE_CURVE ( 'NONE', #175, #263, #4, .T. ) ;
#161 = DIRECTION ( 'NONE',  ( 1.000000000000000000, 0.000000000000000000, 0.000000000000000000 ) ) ;
#162 = CARTESIAN_POINT ( 'NONE',  ( 0.000000000000000000, 0.000000000000000000, 205.0000000000000284 ) ) ;
#163 = DATE_AND_TIME ( #68, #45 ) ;
#164 = DIRECTION ( 'NONE',  ( 0.000000000000000000, 0.000000000000000000, 1.000000000000000000 ) ) ;
#165 = PERSON ( 'NEURÈENÝ', 'NEURÈENÝ', 'NEURÈENÝ', ('NEURÈENÝ'), ('NEURÈENÝ'), ('NEURÈENÝ') ) ;
#166 = DIRECTION ( 'NONE',  ( 0.000000000000000000, 0.000000000000000000, 1.000000000000000000 ) ) ;
#167 = DIRECTION ( 'NONE',  ( 1.000000000000000000, 0.000000000000000000, 0.000000000000000000 ) ) ;
#168 = ORIENTED_EDGE ( 'NONE', *, *, #182, .T. ) ;
#169 = PERSON_AND_ORGANIZATION ( #165, #115 ) ;
#170 = AXIS2_PLACEMENT_3D ( 'NONE', #118, #164, #161 ) ;
#171 = CC_DESIGN_PERSON_AND_ORGANIZATION_ASSIGNMENT ( #90, #114, ( #58 ) ) ;
#172 = ORIENTED_EDGE ( 'NONE', *, *, #160, .F. ) ;
#173 = AXIS2_PLACEMENT_3D ( 'NONE', #258, #96, #2 ) ;
#174 = APPROVAL ( #306, 'NEURÈENÝ' ) ;
#175 = VERTEX_POINT ( 'NONE', #20 ) ;
#176 = AXIS2_PLACEMENT_3D ( 'NONE', #112, #133, #38 ) ;
#177 = ORIENTED_EDGE ( 'NONE', *, *, #160, .T. ) ;
#178 = CARTESIAN_POINT ( 'NONE',  ( 0.000000000000000000, 0.000000000000000000, 0.000000000000000000 ) ) ;
#179 = DIRECTION ( 'NONE',  ( 1.000000000000000000, 0.000000000000000000, 0.000000000000000000 ) ) ;
#180 = DATE_TIME_ROLE ( 'classification_date' ) ;
#181 = CARTESIAN_POINT ( 'NONE',  ( -5.500000000000000000, 0.000000000000000000, 5.200000000000009948 ) ) ;
#182 = EDGE_CURVE ( 'NONE', #152, #292, #194, .T. ) ;
#183 = PERSON_AND_ORGANIZATION_ROLE ( 'classification_officer' ) ;
#184 = PERSON_AND_ORGANIZATION ( #165, #115 ) ;
#185 = CYLINDRICAL_SURFACE ( 'NONE', #198, 8.000000000000000000 ) ;
#186 = COORDINATED_UNIVERSAL_TIME_OFFSET ( 1, 0, .AHEAD. ) ;
#187 = CIRCLE ( 'NONE', #176, 8.000000000000000000 ) ;
#188 = CARTESIAN_POINT ( 'NONE',  ( 8.000000000000000000, 9.797174393178825657E-16, 5.000000000000000000 ) ) ;
#189 = PLANE ( 'NONE',  #243 ) ;
#190 = CARTESIAN_POINT ( 'NONE',  ( 5.699999999999999289, 0.000000000000000000, 5.200000000000009948 ) ) ;
#191 = APPROVAL ( #140, 'NEURÈENÝ' ) ;
#192 = DIRECTION ( 'NONE',  ( -0.000000000000000000, -0.000000000000000000, -1.000000000000000000 ) ) ;
#193 = DIRECTION ( 'NONE',  ( -1.000000000000000000, 0.000000000000000000, 0.000000000000000000 ) ) ;
#194 = CIRCLE ( 'NONE', #17, 5.699999999999999289 ) ;
#195 = CC_DESIGN_APPROVAL ( #191, ( #58 ) ) ;
#196 = ORIENTED_EDGE ( 'NONE', *, *, #182, .F. ) ;
#197 = CIRCLE ( 'NONE', #70, 5.500000000000000000 ) ;
#198 = AXIS2_PLACEMENT_3D ( 'NONE', #214, #256, #278 ) ;
#199 = ORIENTED_EDGE ( 'NONE', *, *, #257, .F. ) ;
#200 = APPROVAL_STATUS ( 'not_yet_approved' ) ;
#201 = ORIENTED_EDGE ( 'NONE', *, *, #7, .F. ) ;
#202 = CC_DESIGN_DATE_AND_TIME_ASSIGNMENT ( #132, #74, ( #216 ) ) ;
#203 = CARTESIAN_POINT ( 'NONE',  ( 0.000000000000000000, 0.000000000000000000, 205.0000000000000284 ) ) ;
#204 = DIRECTION ( 'NONE',  ( 0.000000000000000000, 0.000000000000000000, 1.000000000000000000 ) ) ;
#205 = DIRECTION ( 'NONE',  ( -0.000000000000000000, -0.000000000000000000, -1.000000000000000000 ) ) ;
#206 = ADVANCED_FACE ( 'NONE', ( #210 ), #185, .T. ) ;
#207 = PERSON_AND_ORGANIZATION_ROLE ( 'creator' ) ;
#208 = CIRCLE ( 'NONE', #121, 0.1999999999999996503 ) ;
#209 = COORDINATED_UNIVERSAL_TIME_OFFSET ( 1, 0, .AHEAD. ) ;
#210 = FACE_OUTER_BOUND ( 'NONE', #269, .T. ) ;
#211 = CARTESIAN_POINT ( 'NONE',  ( 8.000000000000000000, 9.797174393178825657E-16, 0.000000000000000000 ) ) ;
#212 = PRODUCT ( '5c7a', '5c7a', '', ( #106 ) ) ;
#213 = VECTOR ( 'NONE', #6, 1000.000000000000000 ) ;
#214 = CARTESIAN_POINT ( 'NONE',  ( 0.000000000000000000, 0.000000000000000000, 5.000000000000000000 ) ) ;
#215 = CYLINDRICAL_SURFACE ( 'NONE', #124, 5.500000000000000000 ) ;
#216 = PRODUCT_DEFINITION ( 'NEZNÁMÝ', '', #58, #135 ) ;
#217 = CARTESIAN_POINT ( 'NONE',  ( 0.000000000000000000, 0.000000000000000000, 0.000000000000000000 ) ) ;
#218 = PERSON_AND_ORGANIZATION ( #165, #115 ) ;
#219 = AXIS2_PLACEMENT_3D ( 'NONE', #217, #166, #240 ) ;
#220 = ORIENTED_EDGE ( 'NONE', *, *, #127, .T. ) ;
#221 = APPLICATION_PROTOCOL_DEFINITION ( 'international standard', 'config_control_design', 1994, #158 ) ;
#222 = EDGE_LOOP ( 'NONE', ( #36, #126 ) ) ;
#223 = ORIENTED_EDGE ( 'NONE', *, *, #127, .F. ) ;
#224 = CIRCLE ( 'NONE', #170, 5.500000000000000000 ) ;
#225 = EDGE_CURVE ( 'NONE', #50, #292, #208, .T. ) ;
#226 = ORIENTED_EDGE ( 'NONE', *, *, #79, .T. ) ;
#227 = CALENDAR_DATE ( 2022, 20, 6 ) ;
#228 = VERTEX_POINT ( 'NONE', #211 ) ;
#229 = DIRECTION ( 'NONE',  ( -0.000000000000000000, -0.000000000000000000, -1.000000000000000000 ) ) ;
#230 = CARTESIAN_POINT ( 'NONE',  ( 0.000000000000000000, 0.000000000000000000, 5.000000000000000000 ) ) ;
#231 = SECURITY_CLASSIFICATION_LEVEL ( 'unclassified' ) ;
#232 = AXIS2_PLACEMENT_3D ( 'NONE', #83, #204, #179 ) ;
#233 = CARTESIAN_POINT ( 'NONE',  ( 8.000000000000000000, 9.797174393178825657E-16, 5.000000000000000000 ) ) ;
#234 = CIRCLE ( 'NONE', #281, 8.000000000000000000 ) ;
#235 = PRODUCT_RELATED_PRODUCT_CATEGORY ( 'detail', '', ( #212 ) ) ;
#236 = DIRECTION ( 'NONE',  ( -1.000000000000000000, 1.224646799147353454E-16, 0.000000000000000000 ) ) ;
#237 = DIRECTION ( 'NONE',  ( 0.000000000000000000, 0.000000000000000000, 1.000000000000000000 ) ) ;
#238 = LINE ( 'NONE', #48, #213 ) ;
#239 = EDGE_CURVE ( 'NONE', #228, #75, #234, .T. ) ;
#240 = DIRECTION ( 'NONE',  ( 1.000000000000000000, 0.000000000000000000, -0.000000000000000000 ) ) ;
#241 =( LENGTH_UNIT ( ) NAMED_UNIT ( * ) SI_UNIT ( .MILLI., .METRE. ) );
#242 = EDGE_LOOP ( 'NONE', ( #109, #273, #196, #223 ) ) ;
#243 = AXIS2_PLACEMENT_3D ( 'NONE', #22, #237, #69 ) ;
#244 = EDGE_LOOP ( 'NONE', ( #153, #8 ) ) ;
#245 = CC_DESIGN_PERSON_AND_ORGANIZATION_ASSIGNMENT ( #111, #82, ( #216 ) ) ;
#246 = CARTESIAN_POINT ( 'NONE',  ( -5.699999999999999289, 6.980486755139912122E-16, 5.000000000000005329 ) ) ;
#247 = EDGE_LOOP ( 'NONE', ( #201, #226, #266, #123 ) ) ;
#248 = COORDINATED_UNIVERSAL_TIME_OFFSET ( 1, 0, .AHEAD. ) ;
#249 = DIRECTION ( 'NONE',  ( 1.000000000000000000, 0.000000000000000000, 0.000000000000000000 ) ) ;
#250 = COORDINATED_UNIVERSAL_TIME_OFFSET ( 1, 0, .AHEAD. ) ;
#251 = DIRECTION ( 'NONE',  ( 0.000000000000000000, 0.000000000000000000, 1.000000000000000000 ) ) ;
#252 = APPROVAL_ROLE ( '' ) ;
#253 = CARTESIAN_POINT ( 'NONE',  ( 5.699999999999999289, 0.000000000000000000, 5.000000000000005329 ) ) ;
#254 = APPROVAL ( #200, 'NEURÈENÝ' ) ;
#255 = CARTESIAN_POINT ( 'NONE',  ( -5.699999999999999289, 6.980486755139912122E-16, 5.200000000000009948 ) ) ;
#256 = DIRECTION ( 'NONE',  ( -0.000000000000000000, -0.000000000000000000, -1.000000000000000000 ) ) ;
#257 = EDGE_CURVE ( 'NONE', #52, #175, #264, .T. ) ;
#258 = CARTESIAN_POINT ( 'NONE',  ( 0.000000000000000000, 0.000000000000000000, 5.200000000000009948 ) ) ;
#259 = CARTESIAN_POINT ( 'NONE',  ( 0.000000000000000000, 0.000000000000000000, 5.000000000000000000 ) ) ;
#260 = VERTEX_POINT ( 'NONE', #282 ) ;
#261 = LOCAL_TIME ( 11, 35, 51.00000000000000000, #209 ) ;
#262 = PERSON_AND_ORGANIZATION_ROLE ( 'design_owner' ) ;
#263 = VERTEX_POINT ( 'NONE', #71 ) ;
#264 = CIRCLE ( 'NONE', #53, 5.500000000000000000 ) ;
#265 = APPROVAL_PERSON_ORGANIZATION ( #169, #191, #252 ) ;
#266 = ORIENTED_EDGE ( 'NONE', *, *, #239, .T. ) ;
#267 = CC_DESIGN_PERSON_AND_ORGANIZATION_ASSIGNMENT ( #12, #262, ( #212 ) ) ;
#268 = DIRECTION ( 'NONE',  ( -0.000000000000000000, -0.000000000000000000, -1.000000000000000000 ) ) ;
#269 = EDGE_LOOP ( 'NONE', ( #80, #271, #10, #15 ) ) ;
#270 = PLANE ( 'NONE',  #145 ) ;
#271 = ORIENTED_EDGE ( 'NONE', *, *, #35, .F. ) ;
#272 =( NAMED_UNIT ( * ) SI_UNIT ( $, .STERADIAN. ) SOLID_ANGLE_UNIT ( ) );
#273 = ORIENTED_EDGE ( 'NONE', *, *, #225, .T. ) ;
#274 = CIRCLE ( 'NONE', #16, 8.000000000000000000 ) ;
#275 = CC_DESIGN_APPROVAL ( #254, ( #216 ) ) ;
#276 = ADVANCED_FACE ( 'NONE', ( #149 ), #14, .T. ) ;
#277 = SHAPE_DEFINITION_REPRESENTATION ( #24, #143 ) ;
#278 = DIRECTION ( 'NONE',  ( -1.000000000000000000, 0.000000000000000000, 0.000000000000000000 ) ) ;
#279 = DATE_AND_TIME ( #117, #261 ) ;
#280 = DIRECTION ( 'NONE',  ( 1.000000000000000000, 0.000000000000000000, 0.000000000000000000 ) ) ;
#281 = AXIS2_PLACEMENT_3D ( 'NONE', #46, #91, #280 ) ;
#282 = CARTESIAN_POINT ( 'NONE',  ( -8.000000000000000000, 0.000000000000000000, 5.000000000000000000 ) ) ;
#283 = DIRECTION ( 'NONE',  ( -0.000000000000000000, -0.000000000000000000, -1.000000000000000000 ) ) ;
#284 = CARTESIAN_POINT ( 'NONE',  ( 0.000000000000000000, 0.000000000000000000, 205.0000000000000284 ) ) ;
#285 = APPROVAL_PERSON_ORGANIZATION ( #218, #254, #56 ) ;
#286 = ORIENTED_EDGE ( 'NONE', *, *, #103, .F. ) ;
#287 = ADVANCED_FACE ( 'NONE', ( #51 ), #86, .F. ) ;
#288 = ORIENTED_EDGE ( 'NONE', *, *, #49, .F. ) ;
#289 = DIRECTION ( 'NONE',  ( 0.000000000000000000, 0.000000000000000000, 1.000000000000000000 ) ) ;
#290 = AXIS2_PLACEMENT_3D ( 'NONE', #129, #251, #300 ) ;
#291 = ADVANCED_FACE ( 'NONE', ( #156 ), #29, .T. ) ;
#292 = VERTEX_POINT ( 'NONE', #246 ) ;
#293 = ORIENTED_EDGE ( 'NONE', *, *, #49, .T. ) ;
#294 = VECTOR ( 'NONE', #192, 1000.000000000000000 ) ;
#295 = CIRCLE ( 'NONE', #173, 5.500000000000000000 ) ;
#296 = DIRECTION ( 'NONE',  ( 0.000000000000000000, 0.000000000000000000, 1.000000000000000000 ) ) ;
#297 = FACE_OUTER_BOUND ( 'NONE', #242, .T. ) ;
#298 = CIRCLE ( 'NONE', #3, 0.1999999999999996503 ) ;
#299 = CC_DESIGN_SECURITY_CLASSIFICATION ( #305, ( #58 ) ) ;
#300 = DIRECTION ( 'NONE',  ( 1.000000000000000000, 0.000000000000000000, 0.000000000000000000 ) ) ;
#301 = UNCERTAINTY_MEASURE_WITH_UNIT (LENGTH_MEASURE( 1.000000000000000082E-05 ), #241, 'distance_accuracy_value', 'NONE');
#302 = ADVANCED_FACE ( 'NONE', ( #130 ), #270, .T. ) ;
#303 = COORDINATED_UNIVERSAL_TIME_OFFSET ( 1, 0, .AHEAD. ) ;
#304 = AXIS2_PLACEMENT_3D ( 'NONE', #178, #296, #77 ) ;
#305 = SECURITY_CLASSIFICATION ( '', '', #231 ) ;
#306 = APPROVAL_STATUS ( 'not_yet_approved' ) ;
#307 = CARTESIAN_POINT ( 'NONE',  ( -8.000000000000000000, 0.000000000000000000, 0.000000000000000000 ) ) ;
ENDSEC;
END-ISO-10303-21;
