ISO-10303-21;
HEADER;
FILE_DESCRIPTION (( 'STEP AP203' ),
    '1' );
FILE_NAME ('8853.STEP',
    '2022-06-20T10:03:12',
    ( '' ),
    ( '' ),
    'SwSTEP 2.0',
    'SolidWorks 2019',
    '' );
FILE_SCHEMA (( 'CONFIG_CONTROL_DESIGN' ));
ENDSEC;

DATA;
#1 = AXIS2_PLACEMENT_3D ( 'NONE', #64, #49, #186 ) ;
#2 = FACE_OUTER_BOUND ( 'NONE', #231, .T. ) ;
#3 = CC_DESIGN_PERSON_AND_ORGANIZATION_ASSIGNMENT ( #58, #198, ( #9 ) ) ;
#4 = AXIS2_PLACEMENT_3D ( 'NONE', #99, #56, #194 ) ;
#5 = CIRCLE ( 'NONE', #217, 5.000000000000000000 ) ;
#6 = CALENDAR_DATE ( 2022, 20, 6 ) ;
#7 = PLANE ( 'NONE',  #167 ) ;
#8 = COORDINATED_UNIVERSAL_TIME_OFFSET ( 1, 0, .AHEAD. ) ;
#9 = PRODUCT_DEFINITION ( 'NEZNÁMÝ', '', #219, #133 ) ;
#10 = PERSON_AND_ORGANIZATION_ROLE ( 'design_supplier' ) ;
#11 = AXIS2_PLACEMENT_3D ( 'NONE', #75, #93, #94 ) ;
#12 = DATE_AND_TIME ( #240, #126 ) ;
#13 = EDGE_CURVE ( 'NONE', #53, #66, #211, .T. ) ;
#14 = DATE_AND_TIME ( #177, #29 ) ;
#15 = DIRECTION ( 'NONE',  ( -0.000000000000000000, -0.000000000000000000, -1.000000000000000000 ) ) ;
#16 = APPROVAL_PERSON_ORGANIZATION ( #124, #153, #174 ) ;
#17 = EDGE_CURVE ( 'NONE', #179, #66, #140, .T. ) ;
#18 = CARTESIAN_POINT ( 'NONE',  ( 0.000000000000000000, 0.000000000000000000, 3.199999999999980638 ) ) ;
#19 = ORIENTED_EDGE ( 'NONE', *, *, #69, .F. ) ;
#20 = ORIENTED_EDGE ( 'NONE', *, *, #17, .T. ) ;
#21 = AXIS2_PLACEMENT_3D ( 'NONE', #273, #15, #294 ) ;
#22 = CARTESIAN_POINT ( 'NONE',  ( 0.000000000000000000, 0.000000000000000000, 3.000000000000000000 ) ) ;
#23 = EDGE_LOOP ( 'NONE', ( #112, #136 ) ) ;
#24 = ADVANCED_FACE ( 'NONE', ( #31 ), #215, .F. ) ;
#25 = ORIENTED_EDGE ( 'NONE', *, *, #130, .T. ) ;
#26 =( LENGTH_UNIT ( ) NAMED_UNIT ( * ) SI_UNIT ( .MILLI., .METRE. ) );
#27 = PERSON ( 'NEURÈENÝ', 'NEURÈENÝ', 'NEURÈENÝ', ('NEURÈENÝ'), ('NEURÈENÝ'), ('NEURÈENÝ') ) ;
#28 = VERTEX_POINT ( 'NONE', #79 ) ;
#29 = LOCAL_TIME ( 12, 3, 12.00000000000000000, #244 ) ;
#30 = CARTESIAN_POINT ( 'NONE',  ( 0.000000000000000000, 0.000000000000000000, 3.000000000000000000 ) ) ;
#31 = FACE_OUTER_BOUND ( 'NONE', #23, .T. ) ;
#32 = DIRECTION ( 'NONE',  ( -0.000000000000000000, -0.000000000000000000, -1.000000000000000000 ) ) ;
#33 = AXIS2_PLACEMENT_3D ( 'NONE', #161, #233, #52 ) ;
#34 = FACE_OUTER_BOUND ( 'NONE', #88, .T. ) ;
#35 = DATE_TIME_ROLE ( 'classification_date' ) ;
#36 = CARTESIAN_POINT ( 'NONE',  ( -2.500000000000000000, 0.000000000000000000, 403.0000000000000000 ) ) ;
#37 = DATE_TIME_ROLE ( 'creation_date' ) ;
#38 = FACE_OUTER_BOUND ( 'NONE', #247, .T. ) ;
#39 = PERSON_AND_ORGANIZATION_ROLE ( 'creator' ) ;
#40 = VECTOR ( 'NONE', #184, 1000.000000000000000 ) ;
#41 = CC_DESIGN_DATE_AND_TIME_ASSIGNMENT ( #220, #37, ( #9 ) ) ;
#42 = SHAPE_DEFINITION_REPRESENTATION ( #283, #91 ) ;
#43 = AXIS2_PLACEMENT_3D ( 'NONE', #192, #144, #76 ) ;
#44 = EDGE_CURVE ( 'NONE', #66, #179, #5, .T. ) ;
#45 = DIRECTION ( 'NONE',  ( -0.000000000000000000, -0.000000000000000000, -1.000000000000000000 ) ) ;
#46 = ORIENTED_EDGE ( 'NONE', *, *, #165, .T. ) ;
#47 = CARTESIAN_POINT ( 'NONE',  ( 0.000000000000000000, 0.000000000000000000, 3.000000000000000000 ) ) ;
#48 = VECTOR ( 'NONE', #166, 1000.000000000000000 ) ;
#49 = DIRECTION ( 'NONE',  ( 0.000000000000000000, 0.000000000000000000, 1.000000000000000000 ) ) ;
#50 = CC_DESIGN_APPROVAL ( #153, ( #9 ) ) ;
#51 = EDGE_CURVE ( 'NONE', #132, #71, #216, .T. ) ;
#52 = DIRECTION ( 'NONE',  ( -1.000000000000000000, 0.000000000000000000, 0.000000000000000000 ) ) ;
#53 = VERTEX_POINT ( 'NONE', #118 ) ;
#54 = CARTESIAN_POINT ( 'NONE',  ( -2.700000000000000178, 3.306546357697853733E-16, 3.199999999999980638 ) ) ;
#55 = CIRCLE ( 'NONE', #104, 2.700000000000000178 ) ;
#56 = DIRECTION ( 'NONE',  ( 0.000000000000000000, 0.000000000000000000, 1.000000000000000000 ) ) ;
#57 = DIRECTION ( 'NONE',  ( 0.000000000000000000, 0.000000000000000000, 1.000000000000000000 ) ) ;
#58 = PERSON_AND_ORGANIZATION ( #27, #142 ) ;
#59 = CARTESIAN_POINT ( 'NONE',  ( 0.000000000000000000, 0.000000000000000000, 3.000000000000000000 ) ) ;
#60 = APPLICATION_CONTEXT ( 'configuration controlled 3d designs of mechanical parts and assemblies' ) ;
#61 = EDGE_CURVE ( 'NONE', #53, #28, #281, .T. ) ;
#62 = APPROVAL_ROLE ( '' ) ;
#63 = ORIENTED_EDGE ( 'NONE', *, *, #243, .T. ) ;
#64 = CARTESIAN_POINT ( 'NONE',  ( 0.000000000000000000, 0.000000000000000000, 3.199999999999980638 ) ) ;
#65 = VERTEX_POINT ( 'NONE', #265 ) ;
#66 = VERTEX_POINT ( 'NONE', #213 ) ;
#67 = DIRECTION ( 'NONE',  ( 1.000000000000000000, 0.000000000000000000, 0.000000000000000000 ) ) ;
#68 = ORIENTED_EDGE ( 'NONE', *, *, #165, .F. ) ;
#69 = EDGE_CURVE ( 'NONE', #74, #158, #171, .T. ) ;
#70 = CARTESIAN_POINT ( 'NONE',  ( 5.000000000000000000, 6.123233995736766282E-16, 0.000000000000000000 ) ) ;
#71 = VERTEX_POINT ( 'NONE', #146 ) ;
#72 = AXIS2_PLACEMENT_3D ( 'NONE', #135, #180, #159 ) ;
#73 = DIRECTION ( 'NONE',  ( -0.000000000000000000, -0.000000000000000000, -1.000000000000000000 ) ) ;
#74 = VERTEX_POINT ( 'NONE', #266 ) ;
#75 = CARTESIAN_POINT ( 'NONE',  ( 0.000000000000000000, 0.000000000000000000, 3.000000000000000000 ) ) ;
#76 = DIRECTION ( 'NONE',  ( 1.000000000000000000, 0.000000000000000000, 0.000000000000000000 ) ) ;
#77 = AXIS2_PLACEMENT_3D ( 'NONE', #260, #251, #290 ) ;
#78 = PERSON_AND_ORGANIZATION ( #27, #142 ) ;
#79 = CARTESIAN_POINT ( 'NONE',  ( 5.000000000000000000, 6.123233995736766282E-16, 3.000000000000000000 ) ) ;
#80 = APPROVAL_STATUS ( 'not_yet_approved' ) ;
#81 = TOROIDAL_SURFACE ( 'NONE', #1, 2.700000000000000178, 0.2000000000000000111 ) ;
#82 = APPROVAL_STATUS ( 'not_yet_approved' ) ;
#83 = AXIS2_PLACEMENT_3D ( 'NONE', #155, #203, #275 ) ;
#84 = ORIENTED_EDGE ( 'NONE', *, *, #169, .F. ) ;
#85 = LOCAL_TIME ( 12, 3, 12.00000000000000000, #270 ) ;
#86 = CARTESIAN_POINT ( 'NONE',  ( 2.700000000000000178, 0.000000000000000000, 3.199999999999980638 ) ) ;
#87 = ORIENTED_EDGE ( 'NONE', *, *, #264, .F. ) ;
#88 = EDGE_LOOP ( 'NONE', ( #206, #25 ) ) ;
#89 = ORIENTED_EDGE ( 'NONE', *, *, #204, .T. ) ;
#90 = ADVANCED_FACE ( 'NONE', ( #190 ), #263, .T. ) ;
#91 = ADVANCED_BREP_SHAPE_REPRESENTATION ( '8853', ( #125, #4 ), #271 ) ;
#92 = LOCAL_TIME ( 12, 3, 12.00000000000000000, #295 ) ;
#93 = DIRECTION ( 'NONE',  ( 0.000000000000000000, 0.000000000000000000, 1.000000000000000000 ) ) ;
#94 = DIRECTION ( 'NONE',  ( 1.000000000000000000, 0.000000000000000000, 0.000000000000000000 ) ) ;
#95 = PRODUCT_RELATED_PRODUCT_CATEGORY ( 'detail', '', ( #137 ) ) ;
#96 = CIRCLE ( 'NONE', #223, 0.2000000000000000944 ) ;
#97 = CC_DESIGN_PERSON_AND_ORGANIZATION_ASSIGNMENT ( #151, #39, ( #219 ) ) ;
#98 = FACE_BOUND ( 'NONE', #162, .T. ) ;
#99 = CARTESIAN_POINT ( 'NONE',  ( 0.000000000000000000, 0.000000000000000000, 0.000000000000000000 ) ) ;
#100 = PLANE ( 'NONE',  #261 ) ;
#101 = CARTESIAN_POINT ( 'NONE',  ( 0.000000000000000000, 0.000000000000000000, 3.000000000000000000 ) ) ;
#102 = ADVANCED_FACE ( 'NONE', ( #98, #34 ), #100, .T. ) ;
#103 = PERSON_AND_ORGANIZATION_ROLE ( 'classification_officer' ) ;
#104 = AXIS2_PLACEMENT_3D ( 'NONE', #47, #73, #235 ) ;
#105 = LINE ( 'NONE', #139, #40 ) ;
#106 = APPLICATION_CONTEXT ( 'configuration controlled 3d designs of mechanical parts and assemblies' ) ;
#107 = AXIS2_PLACEMENT_3D ( 'NONE', #54, #238, #168 ) ;
#108 = LOCAL_TIME ( 12, 3, 12.00000000000000000, #147 ) ;
#109 = DIRECTION ( 'NONE',  ( 0.000000000000000000, 0.000000000000000000, 1.000000000000000000 ) ) ;
#110 = LINE ( 'NONE', #284, #191 ) ;
#111 = APPROVAL_PERSON_ORGANIZATION ( #200, #286, #272 ) ;
#112 = ORIENTED_EDGE ( 'NONE', *, *, #44, .F. ) ;
#113 = DIRECTION ( 'NONE',  ( 0.000000000000000000, -1.000000000000000000, 0.000000000000000000 ) ) ;
#114 = ADVANCED_FACE ( 'NONE', ( #2 ), #7, .T. ) ;
#115 = ORIENTED_EDGE ( 'NONE', *, *, #61, .F. ) ;
#116 = CARTESIAN_POINT ( 'NONE',  ( 0.000000000000000000, 0.000000000000000000, 0.000000000000000000 ) ) ;
#117 = CC_DESIGN_SECURITY_CLASSIFICATION ( #188, ( #219 ) ) ;
#118 = CARTESIAN_POINT ( 'NONE',  ( -5.000000000000000000, 0.000000000000000000, 3.000000000000000000 ) ) ;
#119 = CIRCLE ( 'NONE', #72, 2.500000000000000000 ) ;
#120 = APPROVAL_DATE_TIME ( #267, #196 ) ;
#121 = AXIS2_PLACEMENT_3D ( 'NONE', #101, #156, #246 ) ;
#122 = CARTESIAN_POINT ( 'NONE',  ( 0.000000000000000000, 0.000000000000000000, 403.0000000000000000 ) ) ;
#123 = CLOSED_SHELL ( 'NONE', ( #199, #148, #90, #232, #102, #24, #157, #114, #214 ) ) ;
#124 = PERSON_AND_ORGANIZATION ( #27, #142 ) ;
#125 = MANIFOLD_SOLID_BREP ( 'Zaoblit1', #123 ) ;
#126 = LOCAL_TIME ( 12, 3, 12.00000000000000000, #8 ) ;
#127 = CARTESIAN_POINT ( 'NONE',  ( 0.000000000000000000, 0.000000000000000000, 403.0000000000000000 ) ) ;
#128 = PERSON_AND_ORGANIZATION ( #27, #142 ) ;
#129 = AXIS2_PLACEMENT_3D ( 'NONE', #116, #57, #143 ) ;
#130 = EDGE_CURVE ( 'NONE', #28, #53, #193, .T. ) ;
#131 = CIRCLE ( 'NONE', #201, 2.500000000000000000 ) ;
#132 = VERTEX_POINT ( 'NONE', #225 ) ;
#133 = DESIGN_CONTEXT ( 'detailed design', #106, 'design' ) ;
#134 = ORIENTED_EDGE ( 'NONE', *, *, #287, .T. ) ;
#135 = CARTESIAN_POINT ( 'NONE',  ( 0.000000000000000000, 0.000000000000000000, 3.199999999999980638 ) ) ;
#136 = ORIENTED_EDGE ( 'NONE', *, *, #17, .F. ) ;
#137 = PRODUCT ( '8853', '8853', '', ( #262 ) ) ;
#138 = CYLINDRICAL_SURFACE ( 'NONE', #33, 5.000000000000000000 ) ;
#139 = CARTESIAN_POINT ( 'NONE',  ( -2.500000000000000000, 0.000000000000000000, 403.0000000000000000 ) ) ;
#140 = CIRCLE ( 'NONE', #77, 5.000000000000000000 ) ;
#141 = ORIENTED_EDGE ( 'NONE', *, *, #258, .F. ) ;
#142 = ORGANIZATION ( 'NEURÈENÝ', 'NEURÈENÝ', '' ) ;
#143 = DIRECTION ( 'NONE',  ( 1.000000000000000000, 0.000000000000000000, -0.000000000000000000 ) ) ;
#144 = DIRECTION ( 'NONE',  ( 0.000000000000000000, 0.000000000000000000, 1.000000000000000000 ) ) ;
#145 =( NAMED_UNIT ( * ) PLANE_ANGLE_UNIT ( ) SI_UNIT ( $, .RADIAN. ) );
#146 = CARTESIAN_POINT ( 'NONE',  ( -2.700000000000000178, 3.306546357697853733E-16, 2.999999999999990674 ) ) ;
#147 = COORDINATED_UNIVERSAL_TIME_OFFSET ( 1, 0, .AHEAD. ) ;
#148 = ADVANCED_FACE ( 'NONE', ( #293 ), #178, .T. ) ;
#149 = DIRECTION ( 'NONE',  ( 0.000000000000000000, 0.000000000000000000, 1.000000000000000000 ) ) ;
#150 = APPROVAL_DATE_TIME ( #14, #153 ) ;
#151 = PERSON_AND_ORGANIZATION ( #27, #142 ) ;
#152 = DIRECTION ( 'NONE',  ( 1.000000000000000000, 0.000000000000000000, -0.000000000000000000 ) ) ;
#153 = APPROVAL ( #80, 'NEURÈENÝ' ) ;
#154 = PERSON_AND_ORGANIZATION_ROLE ( 'design_owner' ) ;
#155 = CARTESIAN_POINT ( 'NONE',  ( 0.000000000000000000, 0.000000000000000000, 403.0000000000000000 ) ) ;
#156 = DIRECTION ( 'NONE',  ( 0.000000000000000000, 0.000000000000000000, 1.000000000000000000 ) ) ;
#157 = ADVANCED_FACE ( 'NONE', ( #38 ), #222, .T. ) ;
#158 = VERTEX_POINT ( 'NONE', #36 ) ;
#159 = DIRECTION ( 'NONE',  ( 1.000000000000000000, 0.000000000000000000, 0.000000000000000000 ) ) ;
#160 = ORIENTED_EDGE ( 'NONE', *, *, #169, .T. ) ;
#161 = CARTESIAN_POINT ( 'NONE',  ( 0.000000000000000000, 0.000000000000000000, 3.000000000000000000 ) ) ;
#162 = EDGE_LOOP ( 'NONE', ( #276, #304 ) ) ;
#163 = ORIENTED_EDGE ( 'NONE', *, *, #44, .T. ) ;
#164 = AXIS2_PLACEMENT_3D ( 'NONE', #252, #207, #67 ) ;
#165 = EDGE_CURVE ( 'NONE', #158, #74, #131, .T. ) ;
#166 = DIRECTION ( 'NONE',  ( -0.000000000000000000, -0.000000000000000000, -1.000000000000000000 ) ) ;
#167 = AXIS2_PLACEMENT_3D ( 'NONE', #127, #296, #152 ) ;
#168 = DIRECTION ( 'NONE',  ( -1.000000000000000000, 1.224646799147353207E-16, 0.000000000000000000 ) ) ;
#169 = EDGE_CURVE ( 'NONE', #158, #132, #105, .T. ) ;
#170 = AXIS2_PLACEMENT_3D ( 'NONE', #22, #230, #303 ) ;
#171 = CIRCLE ( 'NONE', #43, 2.500000000000000000 ) ;
#172 = APPROVAL_DATE_TIME ( #202, #286 ) ;
#173 = DIRECTION ( 'NONE',  ( 0.000000000000000000, 0.000000000000000000, 1.000000000000000000 ) ) ;
#174 = APPROVAL_ROLE ( '' ) ;
#175 = PERSON_AND_ORGANIZATION ( #27, #142 ) ;
#176 = AXIS2_PLACEMENT_3D ( 'NONE', #18, #109, #301 ) ;
#177 = CALENDAR_DATE ( 2022, 20, 6 ) ;
#178 = CYLINDRICAL_SURFACE ( 'NONE', #21, 2.500000000000000000 ) ;
#179 = VERTEX_POINT ( 'NONE', #70 ) ;
#180 = DIRECTION ( 'NONE',  ( 0.000000000000000000, 0.000000000000000000, 1.000000000000000000 ) ) ;
#181 = ORIENTED_EDGE ( 'NONE', *, *, #51, .T. ) ;
#182 = DIRECTION ( 'NONE',  ( 0.000000000000000000, 0.000000000000000000, -1.000000000000000000 ) ) ;
#183 = EDGE_LOOP ( 'NONE', ( #279, #236, #254, #87 ) ) ;
#184 = DIRECTION ( 'NONE',  ( -0.000000000000000000, -0.000000000000000000, -1.000000000000000000 ) ) ;
#185 = ORIENTED_EDGE ( 'NONE', *, *, #13, .F. ) ;
#186 = DIRECTION ( 'NONE',  ( 1.000000000000000000, 0.000000000000000000, 0.000000000000000000 ) ) ;
#187 = ORIENTED_EDGE ( 'NONE', *, *, #13, .T. ) ;
#188 = SECURITY_CLASSIFICATION ( '', '', #245 ) ;
#189 = EDGE_CURVE ( 'NONE', #132, #234, #226, .T. ) ;
#190 = FACE_OUTER_BOUND ( 'NONE', #257, .T. ) ;
#191 = VECTOR ( 'NONE', #205, 1000.000000000000000 ) ;
#192 = CARTESIAN_POINT ( 'NONE',  ( 0.000000000000000000, 0.000000000000000000, 403.0000000000000000 ) ) ;
#193 = CIRCLE ( 'NONE', #121, 5.000000000000000000 ) ;
#194 = DIRECTION ( 'NONE',  ( 1.000000000000000000, 0.000000000000000000, 0.000000000000000000 ) ) ;
#195 = CALENDAR_DATE ( 2022, 20, 6 ) ;
#196 = APPROVAL ( #291, 'NEURÈENÝ' ) ;
#197 = CC_DESIGN_APPROVAL ( #286, ( #219 ) ) ;
#198 = PERSON_AND_ORGANIZATION_ROLE ( 'creator' ) ;
#199 = ADVANCED_FACE ( 'NONE', ( #228 ), #81, .F. ) ;
#200 = PERSON_AND_ORGANIZATION ( #27, #142 ) ;
#201 = AXIS2_PLACEMENT_3D ( 'NONE', #122, #269, #242 ) ;
#202 = DATE_AND_TIME ( #6, #85 ) ;
#203 = DIRECTION ( 'NONE',  ( -0.000000000000000000, -0.000000000000000000, -1.000000000000000000 ) ) ;
#204 = EDGE_CURVE ( 'NONE', #28, #179, #110, .T. ) ;
#205 = DIRECTION ( 'NONE',  ( -0.000000000000000000, -0.000000000000000000, -1.000000000000000000 ) ) ;
#206 = ORIENTED_EDGE ( 'NONE', *, *, #61, .T. ) ;
#207 = DIRECTION ( 'NONE',  ( 0.000000000000000000, 0.000000000000000000, 1.000000000000000000 ) ) ;
#208 = ORIENTED_EDGE ( 'NONE', *, *, #189, .F. ) ;
#209 = CIRCLE ( 'NONE', #170, 2.700000000000000178 ) ;
#210 = ORIENTED_EDGE ( 'NONE', *, *, #69, .T. ) ;
#211 = LINE ( 'NONE', #307, #48 ) ;
#212 =( NAMED_UNIT ( * ) SI_UNIT ( $, .STERADIAN. ) SOLID_ANGLE_UNIT ( ) );
#213 = CARTESIAN_POINT ( 'NONE',  ( -5.000000000000000000, 0.000000000000000000, 0.000000000000000000 ) ) ;
#214 = ADVANCED_FACE ( 'NONE', ( #256 ), #255, .F. ) ;
#215 = PLANE ( 'NONE',  #129 ) ;
#216 = CIRCLE ( 'NONE', #107, 0.2000000000000000944 ) ;
#217 = AXIS2_PLACEMENT_3D ( 'NONE', #237, #173, #288 ) ;
#218 = DIRECTION ( 'NONE',  ( -1.000000000000000000, 0.000000000000000000, 0.000000000000000000 ) ) ;
#219 = PRODUCT_DEFINITION_FORMATION_WITH_SPECIFIED_SOURCE ( 'LIBOVOLNÝ', '', #137, .NOT_KNOWN. ) ;
#220 = DATE_AND_TIME ( #195, #108 ) ;
#221 = PERSON_AND_ORGANIZATION ( #27, #142 ) ;
#222 = CYLINDRICAL_SURFACE ( 'NONE', #83, 2.500000000000000000 ) ;
#223 = AXIS2_PLACEMENT_3D ( 'NONE', #86, #113, #182 ) ;
#224 = APPLICATION_PROTOCOL_DEFINITION ( 'international standard', 'config_control_design', 1994, #106 ) ;
#225 = CARTESIAN_POINT ( 'NONE',  ( -2.500000000000000000, 0.000000000000000000, 3.199999999999980638 ) ) ;
#226 = CIRCLE ( 'NONE', #164, 2.500000000000000000 ) ;
#227 = CARTESIAN_POINT ( 'NONE',  ( 2.500000000000000000, 3.061616997868383141E-16, 3.199999999999980638 ) ) ;
#228 = FACE_OUTER_BOUND ( 'NONE', #229, .T. ) ;
#229 = EDGE_LOOP ( 'NONE', ( #208, #181, #141, #305 ) ) ;
#230 = DIRECTION ( 'NONE',  ( -0.000000000000000000, -0.000000000000000000, -1.000000000000000000 ) ) ;
#231 = EDGE_LOOP ( 'NONE', ( #46, #210 ) ) ;
#232 = ADVANCED_FACE ( 'NONE', ( #250 ), #138, .T. ) ;
#233 = DIRECTION ( 'NONE',  ( -0.000000000000000000, -0.000000000000000000, -1.000000000000000000 ) ) ;
#234 = VERTEX_POINT ( 'NONE', #227 ) ;
#235 = DIRECTION ( 'NONE',  ( 1.000000000000000000, 0.000000000000000000, 0.000000000000000000 ) ) ;
#236 = ORIENTED_EDGE ( 'NONE', *, *, #243, .F. ) ;
#237 = CARTESIAN_POINT ( 'NONE',  ( 0.000000000000000000, 0.000000000000000000, 0.000000000000000000 ) ) ;
#238 = DIRECTION ( 'NONE',  ( 1.224646799147353207E-16, 1.000000000000000000, -0.000000000000000000 ) ) ;
#239 = CC_DESIGN_PERSON_AND_ORGANIZATION_ASSIGNMENT ( #175, #103, ( #188 ) ) ;
#240 = CALENDAR_DATE ( 2022, 20, 6 ) ;
#241 = DIRECTION ( 'NONE',  ( 1.000000000000000000, 0.000000000000000000, -0.000000000000000000 ) ) ;
#242 = DIRECTION ( 'NONE',  ( 1.000000000000000000, 0.000000000000000000, 0.000000000000000000 ) ) ;
#243 = EDGE_CURVE ( 'NONE', #234, #132, #119, .T. ) ;
#244 = COORDINATED_UNIVERSAL_TIME_OFFSET ( 1, 0, .AHEAD. ) ;
#245 = SECURITY_CLASSIFICATION_LEVEL ( 'unclassified' ) ;
#246 = DIRECTION ( 'NONE',  ( 1.000000000000000000, 0.000000000000000000, 0.000000000000000000 ) ) ;
#247 = EDGE_LOOP ( 'NONE', ( #280, #68, #160, #253 ) ) ;
#248 = LINE ( 'NONE', #306, #298 ) ;
#249 = CC_DESIGN_APPROVAL ( #196, ( #188 ) ) ;
#250 = FACE_OUTER_BOUND ( 'NONE', #300, .T. ) ;
#251 = DIRECTION ( 'NONE',  ( 0.000000000000000000, 0.000000000000000000, 1.000000000000000000 ) ) ;
#252 = CARTESIAN_POINT ( 'NONE',  ( 0.000000000000000000, 0.000000000000000000, 3.199999999999980638 ) ) ;
#253 = ORIENTED_EDGE ( 'NONE', *, *, #189, .T. ) ;
#254 = ORIENTED_EDGE ( 'NONE', *, *, #268, .T. ) ;
#255 = TOROIDAL_SURFACE ( 'NONE', #176, 2.700000000000000178, 0.2000000000000000111 ) ;
#256 = FACE_OUTER_BOUND ( 'NONE', #183, .T. ) ;
#257 = EDGE_LOOP ( 'NONE', ( #285, #89, #20, #185 ) ) ;
#258 = EDGE_CURVE ( 'NONE', #65, #71, #55, .T. ) ;
#259 = APPLICATION_PROTOCOL_DEFINITION ( 'international standard', 'config_control_design', 1994, #60 ) ;
#260 = CARTESIAN_POINT ( 'NONE',  ( 0.000000000000000000, 0.000000000000000000, 0.000000000000000000 ) ) ;
#261 = AXIS2_PLACEMENT_3D ( 'NONE', #59, #149, #241 ) ;
#262 = MECHANICAL_CONTEXT ( 'NONE', #60, 'mechanical' ) ;
#263 = CYLINDRICAL_SURFACE ( 'NONE', #299, 5.000000000000000000 ) ;
#264 = EDGE_CURVE ( 'NONE', #71, #65, #209, .T. ) ;
#265 = CARTESIAN_POINT ( 'NONE',  ( 2.700000000000000178, 0.000000000000000000, 2.999999999999990674 ) ) ;
#266 = CARTESIAN_POINT ( 'NONE',  ( 2.500000000000000000, 3.061616997868383141E-16, 403.0000000000000000 ) ) ;
#267 = DATE_AND_TIME ( #292, #92 ) ;
#268 = EDGE_CURVE ( 'NONE', #234, #65, #96, .T. ) ;
#269 = DIRECTION ( 'NONE',  ( 0.000000000000000000, 0.000000000000000000, 1.000000000000000000 ) ) ;
#270 = COORDINATED_UNIVERSAL_TIME_OFFSET ( 1, 0, .AHEAD. ) ;
#271 =( GEOMETRIC_REPRESENTATION_CONTEXT ( 3 ) GLOBAL_UNCERTAINTY_ASSIGNED_CONTEXT ( ( #277 ) ) GLOBAL_UNIT_ASSIGNED_CONTEXT ( ( #26, #145, #212 ) ) REPRESENTATION_CONTEXT ( 'NONE', 'WORKASPACE' ) );
#272 = APPROVAL_ROLE ( '' ) ;
#273 = CARTESIAN_POINT ( 'NONE',  ( 0.000000000000000000, 0.000000000000000000, 403.0000000000000000 ) ) ;
#274 = CC_DESIGN_DATE_AND_TIME_ASSIGNMENT ( #12, #35, ( #188 ) ) ;
#275 = DIRECTION ( 'NONE',  ( -1.000000000000000000, 0.000000000000000000, 0.000000000000000000 ) ) ;
#276 = ORIENTED_EDGE ( 'NONE', *, *, #258, .T. ) ;
#277 = UNCERTAINTY_MEASURE_WITH_UNIT (LENGTH_MEASURE( 1.000000000000000082E-05 ), #26, 'distance_accuracy_value', 'NONE');
#278 = CC_DESIGN_PERSON_AND_ORGANIZATION_ASSIGNMENT ( #78, #154, ( #137 ) ) ;
#279 = ORIENTED_EDGE ( 'NONE', *, *, #51, .F. ) ;
#280 = ORIENTED_EDGE ( 'NONE', *, *, #287, .F. ) ;
#281 = CIRCLE ( 'NONE', #11, 5.000000000000000000 ) ;
#282 = EDGE_LOOP ( 'NONE', ( #19, #134, #63, #84 ) ) ;
#283 = PRODUCT_DEFINITION_SHAPE ( 'NONE', 'NONE',  #9 ) ;
#284 = CARTESIAN_POINT ( 'NONE',  ( 5.000000000000000000, 6.123233995736766282E-16, 3.000000000000000000 ) ) ;
#285 = ORIENTED_EDGE ( 'NONE', *, *, #130, .F. ) ;
#286 = APPROVAL ( #82, 'NEURÈENÝ' ) ;
#287 = EDGE_CURVE ( 'NONE', #74, #234, #248, .T. ) ;
#288 = DIRECTION ( 'NONE',  ( 1.000000000000000000, 0.000000000000000000, 0.000000000000000000 ) ) ;
#289 = APPROVAL_PERSON_ORGANIZATION ( #128, #196, #62 ) ;
#290 = DIRECTION ( 'NONE',  ( 1.000000000000000000, 0.000000000000000000, 0.000000000000000000 ) ) ;
#291 = APPROVAL_STATUS ( 'not_yet_approved' ) ;
#292 = CALENDAR_DATE ( 2022, 20, 6 ) ;
#293 = FACE_OUTER_BOUND ( 'NONE', #282, .T. ) ;
#294 = DIRECTION ( 'NONE',  ( -1.000000000000000000, 0.000000000000000000, 0.000000000000000000 ) ) ;
#295 = COORDINATED_UNIVERSAL_TIME_OFFSET ( 1, 0, .AHEAD. ) ;
#296 = DIRECTION ( 'NONE',  ( 0.000000000000000000, 0.000000000000000000, 1.000000000000000000 ) ) ;
#297 = CC_DESIGN_PERSON_AND_ORGANIZATION_ASSIGNMENT ( #221, #10, ( #219 ) ) ;
#298 = VECTOR ( 'NONE', #45, 1000.000000000000000 ) ;
#299 = AXIS2_PLACEMENT_3D ( 'NONE', #30, #32, #218 ) ;
#300 = EDGE_LOOP ( 'NONE', ( #302, #115, #187, #163 ) ) ;
#301 = DIRECTION ( 'NONE',  ( 1.000000000000000000, 0.000000000000000000, 0.000000000000000000 ) ) ;
#302 = ORIENTED_EDGE ( 'NONE', *, *, #204, .F. ) ;
#303 = DIRECTION ( 'NONE',  ( 1.000000000000000000, 0.000000000000000000, 0.000000000000000000 ) ) ;
#304 = ORIENTED_EDGE ( 'NONE', *, *, #264, .T. ) ;
#305 = ORIENTED_EDGE ( 'NONE', *, *, #268, .F. ) ;
#306 = CARTESIAN_POINT ( 'NONE',  ( 2.500000000000000000, 3.061616997868383141E-16, 403.0000000000000000 ) ) ;
#307 = CARTESIAN_POINT ( 'NONE',  ( -5.000000000000000000, 0.000000000000000000, 3.000000000000000000 ) ) ;
ENDSEC;
END-ISO-10303-21;
