ISO-10303-21;
HEADER;
FILE_DESCRIPTION (( 'STEP AP203' ),
    '1' );
FILE_NAME ('3046.STEP',
    '2022-06-20T09:51:07',
    ( '' ),
    ( '' ),
    'SwSTEP 2.0',
    'SolidWorks 2019',
    '' );
FILE_SCHEMA (( 'CONFIG_CONTROL_DESIGN' ));
ENDSEC;

DATA;
#1 = DIRECTION ( 'NONE',  ( 1.000000000000000000, 0.000000000000000000, -0.000000000000000000 ) ) ;
#2 = EDGE_CURVE ( 'NONE', #247, #172, #235, .T. ) ;
#3 = CARTESIAN_POINT ( 'NONE',  ( 0.000000000000000000, 0.000000000000000000, 165.0000000000000000 ) ) ;
#4 = CARTESIAN_POINT ( 'NONE',  ( -3.750000000000000000, 0.000000000000000000, 5.200000000000009948 ) ) ;
#5 = VECTOR ( 'NONE', #106, 1000.000000000000000 ) ;
#6 = EDGE_CURVE ( 'NONE', #55, #290, #131, .T. ) ;
#7 = ORIENTED_EDGE ( 'NONE', *, *, #245, .F. ) ;
#8 = EDGE_LOOP ( 'NONE', ( #269, #292, #54, #81 ) ) ;
#9 = LOCAL_TIME ( 11, 51, 7.000000000000000000, #229 ) ;
#10 = ADVANCED_FACE ( 'NONE', ( #299 ), #56, .F. ) ;
#11 = DESIGN_CONTEXT ( 'detailed design', #72, 'design' ) ;
#12 = ORIENTED_EDGE ( 'NONE', *, *, #211, .F. ) ;
#13 = CARTESIAN_POINT ( 'NONE',  ( 6.000000000000000888, 7.347880794884120722E-16, 0.000000000000000000 ) ) ;
#14 = APPROVAL_DATE_TIME ( #109, #288 ) ;
#15 = CARTESIAN_POINT ( 'NONE',  ( 3.949999999999999734, 0.000000000000000000, 5.200000000000009948 ) ) ;
#16 = EDGE_CURVE ( 'NONE', #104, #58, #65, .T. ) ;
#17 = CYLINDRICAL_SURFACE ( 'NONE', #97, 6.000000000000000888 ) ;
#18 = PERSON_AND_ORGANIZATION ( #145, #191 ) ;
#19 = DIRECTION ( 'NONE',  ( 0.000000000000000000, 0.000000000000000000, 1.000000000000000000 ) ) ;
#20 = APPROVAL_ROLE ( '' ) ;
#21 = CIRCLE ( 'NONE', #83, 3.750000000000000000 ) ;
#22 = DIRECTION ( 'NONE',  ( 0.000000000000000000, 0.000000000000000000, 1.000000000000000000 ) ) ;
#23 =( NAMED_UNIT ( * ) PLANE_ANGLE_UNIT ( ) SI_UNIT ( $, .RADIAN. ) );
#24 = CYLINDRICAL_SURFACE ( 'NONE', #291, 6.000000000000000888 ) ;
#25 = AXIS2_PLACEMENT_3D ( 'NONE', #157, #181, #184 ) ;
#26 = APPROVAL ( #162, 'NEURÈENÝ' ) ;
#27 = CARTESIAN_POINT ( 'NONE',  ( 0.000000000000000000, 0.000000000000000000, 165.0000000000000000 ) ) ;
#28 = AXIS2_PLACEMENT_3D ( 'NONE', #274, #155, #249 ) ;
#29 = ORIENTED_EDGE ( 'NONE', *, *, #16, .T. ) ;
#30 = EDGE_LOOP ( 'NONE', ( #258, #7 ) ) ;
#31 = CIRCLE ( 'NONE', #130, 6.000000000000000888 ) ;
#32 = EDGE_LOOP ( 'NONE', ( #283, #29 ) ) ;
#33 = EDGE_LOOP ( 'NONE', ( #176, #197, #244, #12 ) ) ;
#34 = ORIENTED_EDGE ( 'NONE', *, *, #293, .T. ) ;
#35 = AXIS2_PLACEMENT_3D ( 'NONE', #304, #90, #113 ) ;
#36 = LOCAL_TIME ( 11, 51, 7.000000000000000000, #236 ) ;
#37 = ADVANCED_BREP_SHAPE_REPRESENTATION ( '3046', ( #129, #237 ), #60 ) ;
#38 = CARTESIAN_POINT ( 'NONE',  ( 0.000000000000000000, 0.000000000000000000, 5.000000000000000000 ) ) ;
#39 = CALENDAR_DATE ( 2022, 20, 6 ) ;
#40 = CARTESIAN_POINT ( 'NONE',  ( 0.000000000000000000, 0.000000000000000000, 5.000000000000000000 ) ) ;
#41 = CALENDAR_DATE ( 2022, 20, 6 ) ;
#42 = AXIS2_PLACEMENT_3D ( 'NONE', #38, #59, #45 ) ;
#43 = DIRECTION ( 'NONE',  ( 0.000000000000000000, -1.000000000000000000, 0.000000000000000000 ) ) ;
#44 = COORDINATED_UNIVERSAL_TIME_OFFSET ( 1, 0, .AHEAD. ) ;
#45 = DIRECTION ( 'NONE',  ( 1.000000000000000000, 0.000000000000000000, 0.000000000000000000 ) ) ;
#46 = DATE_AND_TIME ( #160, #9 ) ;
#47 = CYLINDRICAL_SURFACE ( 'NONE', #219, 3.750000000000000000 ) ;
#48 = DIRECTION ( 'NONE',  ( 0.000000000000000000, 0.000000000000000000, 1.000000000000000000 ) ) ;
#49 = SECURITY_CLASSIFICATION ( '', '', #297 ) ;
#50 = DIRECTION ( 'NONE',  ( -1.000000000000000000, 1.224646799147353454E-16, 0.000000000000000000 ) ) ;
#51 = DIRECTION ( 'NONE',  ( 1.000000000000000000, 0.000000000000000000, 0.000000000000000000 ) ) ;
#52 = ADVANCED_FACE ( 'NONE', ( #232 ), #17, .T. ) ;
#53 = CARTESIAN_POINT ( 'NONE',  ( 0.000000000000000000, 0.000000000000000000, 0.000000000000000000 ) ) ;
#54 = ORIENTED_EDGE ( 'NONE', *, *, #245, .T. ) ;
#55 = VERTEX_POINT ( 'NONE', #228 ) ;
#56 = TOROIDAL_SURFACE ( 'NONE', #25, 3.949999999999999734, 0.2000000000000000111 ) ;
#57 = ORIENTED_EDGE ( 'NONE', *, *, #182, .F. ) ;
#58 = VERTEX_POINT ( 'NONE', #279 ) ;
#59 = DIRECTION ( 'NONE',  ( 0.000000000000000000, 0.000000000000000000, 1.000000000000000000 ) ) ;
#60 =( GEOMETRIC_REPRESENTATION_CONTEXT ( 3 ) GLOBAL_UNCERTAINTY_ASSIGNED_CONTEXT ( ( #225 ) ) GLOBAL_UNIT_ASSIGNED_CONTEXT ( ( #123, #23, #264 ) ) REPRESENTATION_CONTEXT ( 'NONE', 'WORKASPACE' ) );
#61 = PERSON_AND_ORGANIZATION_ROLE ( 'design_owner' ) ;
#62 = ORIENTED_EDGE ( 'NONE', *, *, #302, .F. ) ;
#63 = CARTESIAN_POINT ( 'NONE',  ( -3.949999999999999734, 4.837354856632044071E-16, 5.000000000000005329 ) ) ;
#64 = PERSON_AND_ORGANIZATION ( #145, #191 ) ;
#65 = CIRCLE ( 'NONE', #289, 3.949999999999999734 ) ;
#66 = FACE_OUTER_BOUND ( 'NONE', #33, .T. ) ;
#67 = DATE_TIME_ROLE ( 'creation_date' ) ;
#68 = CARTESIAN_POINT ( 'NONE',  ( 0.000000000000000000, 0.000000000000000000, 5.000000000000000000 ) ) ;
#69 = PERSON_AND_ORGANIZATION_ROLE ( 'classification_officer' ) ;
#70 = DIRECTION ( 'NONE',  ( -0.000000000000000000, -0.000000000000000000, -1.000000000000000000 ) ) ;
#71 = DIRECTION ( 'NONE',  ( 1.000000000000000000, 0.000000000000000000, 0.000000000000000000 ) ) ;
#72 = APPLICATION_CONTEXT ( 'configuration controlled 3d designs of mechanical parts and assemblies' ) ;
#73 = EDGE_CURVE ( 'NONE', #290, #58, #142, .T. ) ;
#74 = DIRECTION ( 'NONE',  ( 1.000000000000000000, 0.000000000000000000, 0.000000000000000000 ) ) ;
#75 = FACE_OUTER_BOUND ( 'NONE', #8, .T. ) ;
#76 = AXIS2_PLACEMENT_3D ( 'NONE', #27, #212, #71 ) ;
#77 = ORIENTED_EDGE ( 'NONE', *, *, #211, .T. ) ;
#78 = EDGE_LOOP ( 'NONE', ( #128, #218 ) ) ;
#79 = PRODUCT_DEFINITION ( 'NEZNÁMÝ', '', #149, #11 ) ;
#80 = ORIENTED_EDGE ( 'NONE', *, *, #100, .F. ) ;
#81 = ORIENTED_EDGE ( 'NONE', *, *, #146, .F. ) ;
#82 = FACE_OUTER_BOUND ( 'NONE', #127, .T. ) ;
#83 = AXIS2_PLACEMENT_3D ( 'NONE', #186, #19, #301 ) ;
#84 = APPLICATION_PROTOCOL_DEFINITION ( 'international standard', 'config_control_design', 1994, #72 ) ;
#85 = CIRCLE ( 'NONE', #248, 6.000000000000000888 ) ;
#86 = ADVANCED_FACE ( 'NONE', ( #66 ), #161, .T. ) ;
#87 = DIRECTION ( 'NONE',  ( 1.000000000000000000, 0.000000000000000000, 0.000000000000000000 ) ) ;
#88 = FACE_OUTER_BOUND ( 'NONE', #78, .T. ) ;
#89 = PERSON_AND_ORGANIZATION ( #145, #191 ) ;
#90 = DIRECTION ( 'NONE',  ( -0.000000000000000000, -0.000000000000000000, -1.000000000000000000 ) ) ;
#91 = CARTESIAN_POINT ( 'NONE',  ( -6.000000000000000888, 0.000000000000000000, 5.000000000000000000 ) ) ;
#92 = CIRCLE ( 'NONE', #275, 0.1999999999999996503 ) ;
#93 = CARTESIAN_POINT ( 'NONE',  ( 0.000000000000000000, 0.000000000000000000, 5.000000000000000000 ) ) ;
#94 = DIRECTION ( 'NONE',  ( 0.000000000000000000, 0.000000000000000000, 1.000000000000000000 ) ) ;
#95 = CC_DESIGN_PERSON_AND_ORGANIZATION_ASSIGNMENT ( #89, #137, ( #79 ) ) ;
#96 = DIRECTION ( 'NONE',  ( -0.000000000000000000, -0.000000000000000000, -1.000000000000000000 ) ) ;
#97 = AXIS2_PLACEMENT_3D ( 'NONE', #40, #133, #276 ) ;
#98 = CIRCLE ( 'NONE', #35, 3.949999999999999734 ) ;
#99 = DIRECTION ( 'NONE',  ( 1.000000000000000000, 0.000000000000000000, 0.000000000000000000 ) ) ;
#100 = EDGE_CURVE ( 'NONE', #290, #210, #21, .T. ) ;
#101 = VECTOR ( 'NONE', #121, 1000.000000000000000 ) ;
#102 = ORIENTED_EDGE ( 'NONE', *, *, #6, .F. ) ;
#103 = ADVANCED_FACE ( 'NONE', ( #230, #88 ), #256, .T. ) ;
#104 = VERTEX_POINT ( 'NONE', #63 ) ;
#105 = AXIS2_PLACEMENT_3D ( 'NONE', #193, #241, #1 ) ;
#106 = DIRECTION ( 'NONE',  ( -0.000000000000000000, -0.000000000000000000, -1.000000000000000000 ) ) ;
#107 = ORIENTED_EDGE ( 'NONE', *, *, #73, .F. ) ;
#108 = EDGE_CURVE ( 'NONE', #210, #290, #166, .T. ) ;
#109 = DATE_AND_TIME ( #39, #124 ) ;
#110 = DIRECTION ( 'NONE',  ( 0.000000000000000000, 0.000000000000000000, -1.000000000000000000 ) ) ;
#111 = LOCAL_TIME ( 11, 51, 7.000000000000000000, #281 ) ;
#112 = DIRECTION ( 'NONE',  ( 0.000000000000000000, 0.000000000000000000, 1.000000000000000000 ) ) ;
#113 = DIRECTION ( 'NONE',  ( 1.000000000000000000, 0.000000000000000000, 0.000000000000000000 ) ) ;
#114 = DATE_AND_TIME ( #303, #36 ) ;
#115 = CLOSED_SHELL ( 'NONE', ( #221, #86, #154, #52, #103, #266, #126, #151, #10 ) ) ;
#116 = CARTESIAN_POINT ( 'NONE',  ( 3.750000000000000000, 4.592425496802573972E-16, 5.200000000000009948 ) ) ;
#117 = AXIS2_PLACEMENT_3D ( 'NONE', #3, #94, #286 ) ;
#118 = PERSON_AND_ORGANIZATION_ROLE ( 'creator' ) ;
#119 = CARTESIAN_POINT ( 'NONE',  ( -3.750000000000000000, 0.000000000000000000, 165.0000000000000000 ) ) ;
#120 = PRODUCT ( '3046', '3046', '', ( #284 ) ) ;
#121 = DIRECTION ( 'NONE',  ( -0.000000000000000000, -0.000000000000000000, -1.000000000000000000 ) ) ;
#122 = FACE_OUTER_BOUND ( 'NONE', #173, .T. ) ;
#123 =( LENGTH_UNIT ( ) NAMED_UNIT ( * ) SI_UNIT ( .MILLI., .METRE. ) );
#124 = LOCAL_TIME ( 11, 51, 7.000000000000000000, #44 ) ;
#125 = EDGE_LOOP ( 'NONE', ( #57, #224, #174, #220 ) ) ;
#126 = ADVANCED_FACE ( 'NONE', ( #306 ), #47, .T. ) ;
#127 = EDGE_LOOP ( 'NONE', ( #177, #34 ) ) ;
#128 = ORIENTED_EDGE ( 'NONE', *, *, #192, .T. ) ;
#129 = MANIFOLD_SOLID_BREP ( 'Zaoblit1', #115 ) ;
#130 = AXIS2_PLACEMENT_3D ( 'NONE', #93, #48, #215 ) ;
#131 = LINE ( 'NONE', #252, #280 ) ;
#132 = APPROVAL_DATE_TIME ( #46, #26 ) ;
#133 = DIRECTION ( 'NONE',  ( -0.000000000000000000, -0.000000000000000000, -1.000000000000000000 ) ) ;
#134 = PERSON_AND_ORGANIZATION ( #145, #191 ) ;
#135 = DIRECTION ( 'NONE',  ( -0.000000000000000000, -0.000000000000000000, -1.000000000000000000 ) ) ;
#136 = EDGE_CURVE ( 'NONE', #58, #104, #98, .T. ) ;
#137 = PERSON_AND_ORGANIZATION_ROLE ( 'creator' ) ;
#138 = DIRECTION ( 'NONE',  ( -1.000000000000000000, 0.000000000000000000, 0.000000000000000000 ) ) ;
#139 = PERSON_AND_ORGANIZATION ( #145, #191 ) ;
#140 = LINE ( 'NONE', #91, #5 ) ;
#141 = APPROVAL_STATUS ( 'not_yet_approved' ) ;
#142 = CIRCLE ( 'NONE', #270, 0.1999999999999996503 ) ;
#143 = DIRECTION ( 'NONE',  ( 0.000000000000000000, 0.000000000000000000, 1.000000000000000000 ) ) ;
#144 = CC_DESIGN_APPROVAL ( #288, ( #79 ) ) ;
#145 = PERSON ( 'NEURÈENÝ', 'NEURÈENÝ', 'NEURÈENÝ', ('NEURÈENÝ'), ('NEURÈENÝ'), ('NEURÈENÝ') ) ;
#146 = EDGE_CURVE ( 'NONE', #172, #273, #140, .T. ) ;
#147 = LINE ( 'NONE', #307, #101 ) ;
#148 = PLANE ( 'NONE',  #105 ) ;
#149 = PRODUCT_DEFINITION_FORMATION_WITH_SPECIFIED_SOURCE ( 'LIBOVOLNÝ', '', #120, .NOT_KNOWN. ) ;
#150 = ORIENTED_EDGE ( 'NONE', *, *, #108, .F. ) ;
#151 = ADVANCED_FACE ( 'NONE', ( #82 ), #179, .T. ) ;
#152 = VERTEX_POINT ( 'NONE', #13 ) ;
#153 = ORIENTED_EDGE ( 'NONE', *, *, #16, .F. ) ;
#154 = ADVANCED_FACE ( 'NONE', ( #75 ), #24, .T. ) ;
#155 = DIRECTION ( 'NONE',  ( 0.000000000000000000, 0.000000000000000000, 1.000000000000000000 ) ) ;
#156 = CARTESIAN_POINT ( 'NONE',  ( 0.000000000000000000, 0.000000000000000000, 0.000000000000000000 ) ) ;
#157 = CARTESIAN_POINT ( 'NONE',  ( 0.000000000000000000, 0.000000000000000000, 5.200000000000009948 ) ) ;
#158 = CC_DESIGN_DATE_AND_TIME_ASSIGNMENT ( #233, #209, ( #49 ) ) ;
#159 = CARTESIAN_POINT ( 'NONE',  ( 0.000000000000000000, 0.000000000000000000, 5.200000000000009948 ) ) ;
#160 = CALENDAR_DATE ( 2022, 20, 6 ) ;
#161 = CYLINDRICAL_SURFACE ( 'NONE', #194, 3.750000000000000000 ) ;
#162 = APPROVAL_STATUS ( 'not_yet_approved' ) ;
#163 = CARTESIAN_POINT ( 'NONE',  ( 0.000000000000000000, 0.000000000000000000, 5.000000000000000000 ) ) ;
#164 = COORDINATED_UNIVERSAL_TIME_OFFSET ( 1, 0, .AHEAD. ) ;
#165 = CARTESIAN_POINT ( 'NONE',  ( 0.000000000000000000, 0.000000000000000000, 5.200000000000009948 ) ) ;
#166 = CIRCLE ( 'NONE', #202, 3.750000000000000000 ) ;
#167 = CARTESIAN_POINT ( 'NONE',  ( -3.949999999999999734, 4.837354856632044071E-16, 5.200000000000009948 ) ) ;
#168 = CC_DESIGN_APPROVAL ( #189, ( #49 ) ) ;
#169 = CARTESIAN_POINT ( 'NONE',  ( -6.000000000000000888, 0.000000000000000000, 5.000000000000000000 ) ) ;
#170 = CIRCLE ( 'NONE', #76, 3.750000000000000000 ) ;
#171 = APPROVAL_PERSON_ORGANIZATION ( #18, #26, #277 ) ;
#172 = VERTEX_POINT ( 'NONE', #169 ) ;
#173 = EDGE_LOOP ( 'NONE', ( #150, #246, #295, #107 ) ) ;
#174 = ORIENTED_EDGE ( 'NONE', *, *, #146, .T. ) ;
#175 = TOROIDAL_SURFACE ( 'NONE', #282, 3.949999999999999734, 0.2000000000000000111 ) ;
#176 = ORIENTED_EDGE ( 'NONE', *, *, #293, .F. ) ;
#177 = ORIENTED_EDGE ( 'NONE', *, *, #271, .T. ) ;
#178 = CC_DESIGN_PERSON_AND_ORGANIZATION_ASSIGNMENT ( #139, #118, ( #149 ) ) ;
#179 = PLANE ( 'NONE',  #28 ) ;
#180 = SHAPE_DEFINITION_REPRESENTATION ( #239, #37 ) ;
#181 = DIRECTION ( 'NONE',  ( 0.000000000000000000, 0.000000000000000000, 1.000000000000000000 ) ) ;
#182 = EDGE_CURVE ( 'NONE', #247, #152, #147, .T. ) ;
#183 = DIRECTION ( 'NONE',  ( 0.000000000000000000, 0.000000000000000000, 1.000000000000000000 ) ) ;
#184 = DIRECTION ( 'NONE',  ( 1.000000000000000000, 0.000000000000000000, 0.000000000000000000 ) ) ;
#185 = APPLICATION_PROTOCOL_DEFINITION ( 'international standard', 'config_control_design', 1994, #294 ) ;
#186 = CARTESIAN_POINT ( 'NONE',  ( 0.000000000000000000, 0.000000000000000000, 5.200000000000009948 ) ) ;
#187 = AXIS2_PLACEMENT_3D ( 'NONE', #53, #214, #74 ) ;
#188 = FACE_OUTER_BOUND ( 'NONE', #30, .T. ) ;
#189 = APPROVAL ( #141, 'NEURÈENÝ' ) ;
#190 = CARTESIAN_POINT ( 'NONE',  ( 6.000000000000000888, 7.347880794884120722E-16, 5.000000000000000000 ) ) ;
#191 = ORGANIZATION ( 'NEURÈENÝ', 'NEURÈENÝ', '' ) ;
#192 = EDGE_CURVE ( 'NONE', #172, #247, #31, .T. ) ;
#193 = CARTESIAN_POINT ( 'NONE',  ( 0.000000000000000000, 0.000000000000000000, 0.000000000000000000 ) ) ;
#194 = AXIS2_PLACEMENT_3D ( 'NONE', #201, #254, #206 ) ;
#195 = VERTEX_POINT ( 'NONE', #287 ) ;
#196 = ORIENTED_EDGE ( 'NONE', *, *, #108, .T. ) ;
#197 = ORIENTED_EDGE ( 'NONE', *, *, #6, .T. ) ;
#198 = CIRCLE ( 'NONE', #187, 6.000000000000000888 ) ;
#199 = ORIENTED_EDGE ( 'NONE', *, *, #73, .T. ) ;
#200 = CARTESIAN_POINT ( 'NONE',  ( 0.000000000000000000, 0.000000000000000000, 165.0000000000000000 ) ) ;
#201 = CARTESIAN_POINT ( 'NONE',  ( 0.000000000000000000, 0.000000000000000000, 165.0000000000000000 ) ) ;
#202 = AXIS2_PLACEMENT_3D ( 'NONE', #159, #112, #296 ) ;
#203 = PRODUCT_RELATED_PRODUCT_CATEGORY ( 'detail', '', ( #120 ) ) ;
#204 = DATE_AND_TIME ( #231, #111 ) ;
#205 = CC_DESIGN_SECURITY_CLASSIFICATION ( #49, ( #149 ) ) ;
#206 = DIRECTION ( 'NONE',  ( -1.000000000000000000, 0.000000000000000000, 0.000000000000000000 ) ) ;
#207 = APPROVAL_ROLE ( '' ) ;
#208 = DIRECTION ( 'NONE',  ( -0.000000000000000000, -0.000000000000000000, -1.000000000000000000 ) ) ;
#209 = DATE_TIME_ROLE ( 'classification_date' ) ;
#210 = VERTEX_POINT ( 'NONE', #4 ) ;
#211 = EDGE_CURVE ( 'NONE', #195, #210, #265, .T. ) ;
#212 = DIRECTION ( 'NONE',  ( 0.000000000000000000, 0.000000000000000000, 1.000000000000000000 ) ) ;
#213 = CIRCLE ( 'NONE', #117, 3.750000000000000000 ) ;
#214 = DIRECTION ( 'NONE',  ( 0.000000000000000000, 0.000000000000000000, 1.000000000000000000 ) ) ;
#215 = DIRECTION ( 'NONE',  ( 1.000000000000000000, 0.000000000000000000, 0.000000000000000000 ) ) ;
#216 = CC_DESIGN_PERSON_AND_ORGANIZATION_ASSIGNMENT ( #227, #61, ( #120 ) ) ;
#217 = CARTESIAN_POINT ( 'NONE',  ( 0.000000000000000000, 0.000000000000000000, 5.000000000000000000 ) ) ;
#218 = ORIENTED_EDGE ( 'NONE', *, *, #2, .T. ) ;
#219 = AXIS2_PLACEMENT_3D ( 'NONE', #200, #208, #138 ) ;
#220 = ORIENTED_EDGE ( 'NONE', *, *, #238, .T. ) ;
#221 = ADVANCED_FACE ( 'NONE', ( #122 ), #175, .F. ) ;
#222 = EDGE_LOOP ( 'NONE', ( #102, #268, #77, #196 ) ) ;
#223 = CC_DESIGN_APPROVAL ( #26, ( #149 ) ) ;
#224 = ORIENTED_EDGE ( 'NONE', *, *, #192, .F. ) ;
#225 = UNCERTAINTY_MEASURE_WITH_UNIT (LENGTH_MEASURE( 1.000000000000000082E-05 ), #123, 'distance_accuracy_value', 'NONE');
#226 = DIRECTION ( 'NONE',  ( -0.000000000000000000, -0.000000000000000000, -1.000000000000000000 ) ) ;
#227 = PERSON_AND_ORGANIZATION ( #145, #191 ) ;
#228 = CARTESIAN_POINT ( 'NONE',  ( 3.750000000000000000, 4.592425496802573972E-16, 165.0000000000000000 ) ) ;
#229 = COORDINATED_UNIVERSAL_TIME_OFFSET ( 1, 0, .AHEAD. ) ;
#230 = FACE_BOUND ( 'NONE', #32, .T. ) ;
#231 = CALENDAR_DATE ( 2022, 20, 6 ) ;
#232 = FACE_OUTER_BOUND ( 'NONE', #125, .T. ) ;
#233 = DATE_AND_TIME ( #41, #267 ) ;
#234 = DIRECTION ( 'NONE',  ( 1.000000000000000000, 0.000000000000000000, 0.000000000000000000 ) ) ;
#235 = CIRCLE ( 'NONE', #42, 6.000000000000000888 ) ;
#236 = COORDINATED_UNIVERSAL_TIME_OFFSET ( 1, 0, .AHEAD. ) ;
#237 = AXIS2_PLACEMENT_3D ( 'NONE', #156, #250, #87 ) ;
#238 = EDGE_CURVE ( 'NONE', #273, #152, #198, .T. ) ;
#239 = PRODUCT_DEFINITION_SHAPE ( 'NONE', 'NONE',  #79 ) ;
#240 = DIRECTION ( 'NONE',  ( -1.000000000000000000, 0.000000000000000000, 0.000000000000000000 ) ) ;
#241 = DIRECTION ( 'NONE',  ( 0.000000000000000000, 0.000000000000000000, 1.000000000000000000 ) ) ;
#242 = VECTOR ( 'NONE', #70, 1000.000000000000000 ) ;
#243 = CC_DESIGN_PERSON_AND_ORGANIZATION_ASSIGNMENT ( #134, #253, ( #149 ) ) ;
#244 = ORIENTED_EDGE ( 'NONE', *, *, #100, .T. ) ;
#245 = EDGE_CURVE ( 'NONE', #152, #273, #85, .T. ) ;
#246 = ORIENTED_EDGE ( 'NONE', *, *, #302, .T. ) ;
#247 = VERTEX_POINT ( 'NONE', #190 ) ;
#248 = AXIS2_PLACEMENT_3D ( 'NONE', #260, #143, #51 ) ;
#249 = DIRECTION ( 'NONE',  ( 1.000000000000000000, 0.000000000000000000, -0.000000000000000000 ) ) ;
#250 = DIRECTION ( 'NONE',  ( 0.000000000000000000, 0.000000000000000000, 1.000000000000000000 ) ) ;
#251 = CC_DESIGN_PERSON_AND_ORGANIZATION_ASSIGNMENT ( #257, #69, ( #49 ) ) ;
#252 = CARTESIAN_POINT ( 'NONE',  ( 3.750000000000000000, 4.592425496802573972E-16, 165.0000000000000000 ) ) ;
#253 = PERSON_AND_ORGANIZATION_ROLE ( 'design_supplier' ) ;
#254 = DIRECTION ( 'NONE',  ( -0.000000000000000000, -0.000000000000000000, -1.000000000000000000 ) ) ;
#255 = APPROVAL_STATUS ( 'not_yet_approved' ) ;
#256 = PLANE ( 'NONE',  #298 ) ;
#257 = PERSON_AND_ORGANIZATION ( #145, #191 ) ;
#258 = ORIENTED_EDGE ( 'NONE', *, *, #238, .F. ) ;
#259 = PERSON_AND_ORGANIZATION ( #145, #191 ) ;
#260 = CARTESIAN_POINT ( 'NONE',  ( 0.000000000000000000, 0.000000000000000000, 0.000000000000000000 ) ) ;
#261 = CC_DESIGN_DATE_AND_TIME_ASSIGNMENT ( #204, #67, ( #79 ) ) ;
#262 = DIRECTION ( 'NONE',  ( 1.224646799147353207E-16, 1.000000000000000000, -0.000000000000000000 ) ) ;
#263 = APPROVAL_PERSON_ORGANIZATION ( #64, #288, #207 ) ;
#264 =( NAMED_UNIT ( * ) SI_UNIT ( $, .STERADIAN. ) SOLID_ANGLE_UNIT ( ) );
#265 = LINE ( 'NONE', #119, #242 ) ;
#266 = ADVANCED_FACE ( 'NONE', ( #188 ), #148, .F. ) ;
#267 = LOCAL_TIME ( 11, 51, 7.000000000000000000, #164 ) ;
#268 = ORIENTED_EDGE ( 'NONE', *, *, #271, .F. ) ;
#269 = ORIENTED_EDGE ( 'NONE', *, *, #2, .F. ) ;
#270 = AXIS2_PLACEMENT_3D ( 'NONE', #15, #43, #110 ) ;
#271 = EDGE_CURVE ( 'NONE', #195, #55, #170, .T. ) ;
#272 = EDGE_LOOP ( 'NONE', ( #62, #80, #199, #153 ) ) ;
#273 = VERTEX_POINT ( 'NONE', #285 ) ;
#274 = CARTESIAN_POINT ( 'NONE',  ( 0.000000000000000000, 0.000000000000000000, 165.0000000000000000 ) ) ;
#275 = AXIS2_PLACEMENT_3D ( 'NONE', #167, #262, #50 ) ;
#276 = DIRECTION ( 'NONE',  ( -1.000000000000000000, 0.000000000000000000, 0.000000000000000000 ) ) ;
#277 = APPROVAL_ROLE ( '' ) ;
#278 = DIRECTION ( 'NONE',  ( 1.000000000000000000, 0.000000000000000000, -0.000000000000000000 ) ) ;
#279 = CARTESIAN_POINT ( 'NONE',  ( 3.949999999999999734, 0.000000000000000000, 5.000000000000005329 ) ) ;
#280 = VECTOR ( 'NONE', #226, 1000.000000000000000 ) ;
#281 = COORDINATED_UNIVERSAL_TIME_OFFSET ( 1, 0, .AHEAD. ) ;
#282 = AXIS2_PLACEMENT_3D ( 'NONE', #165, #22, #99 ) ;
#283 = ORIENTED_EDGE ( 'NONE', *, *, #136, .T. ) ;
#284 = MECHANICAL_CONTEXT ( 'NONE', #294, 'mechanical' ) ;
#285 = CARTESIAN_POINT ( 'NONE',  ( -6.000000000000000888, 0.000000000000000000, 0.000000000000000000 ) ) ;
#286 = DIRECTION ( 'NONE',  ( 1.000000000000000000, 0.000000000000000000, 0.000000000000000000 ) ) ;
#287 = CARTESIAN_POINT ( 'NONE',  ( -3.750000000000000000, 0.000000000000000000, 165.0000000000000000 ) ) ;
#288 = APPROVAL ( #255, 'NEURÈENÝ' ) ;
#289 = AXIS2_PLACEMENT_3D ( 'NONE', #68, #135, #234 ) ;
#290 = VERTEX_POINT ( 'NONE', #116 ) ;
#291 = AXIS2_PLACEMENT_3D ( 'NONE', #217, #96, #240 ) ;
#292 = ORIENTED_EDGE ( 'NONE', *, *, #182, .T. ) ;
#293 = EDGE_CURVE ( 'NONE', #55, #195, #213, .T. ) ;
#294 = APPLICATION_CONTEXT ( 'configuration controlled 3d designs of mechanical parts and assemblies' ) ;
#295 = ORIENTED_EDGE ( 'NONE', *, *, #136, .F. ) ;
#296 = DIRECTION ( 'NONE',  ( 1.000000000000000000, 0.000000000000000000, 0.000000000000000000 ) ) ;
#297 = SECURITY_CLASSIFICATION_LEVEL ( 'unclassified' ) ;
#298 = AXIS2_PLACEMENT_3D ( 'NONE', #163, #183, #278 ) ;
#299 = FACE_OUTER_BOUND ( 'NONE', #272, .T. ) ;
#300 = APPROVAL_PERSON_ORGANIZATION ( #259, #189, #20 ) ;
#301 = DIRECTION ( 'NONE',  ( 1.000000000000000000, 0.000000000000000000, 0.000000000000000000 ) ) ;
#302 = EDGE_CURVE ( 'NONE', #210, #104, #92, .T. ) ;
#303 = CALENDAR_DATE ( 2022, 20, 6 ) ;
#304 = CARTESIAN_POINT ( 'NONE',  ( 0.000000000000000000, 0.000000000000000000, 5.000000000000000000 ) ) ;
#305 = APPROVAL_DATE_TIME ( #114, #189 ) ;
#306 = FACE_OUTER_BOUND ( 'NONE', #222, .T. ) ;
#307 = CARTESIAN_POINT ( 'NONE',  ( 6.000000000000000888, 7.347880794884120722E-16, 5.000000000000000000 ) ) ;
ENDSEC;
END-ISO-10303-21;
