ISO-10303-21;
HEADER;
FILE_DESCRIPTION (( 'STEP AP203' ),
    '1' );
FILE_NAME ('4f15.STEP',
    '2022-06-20T09:42:32',
    ( '' ),
    ( '' ),
    'SwSTEP 2.0',
    'SolidWorks 2019',
    '' );
FILE_SCHEMA (( 'CONFIG_CONTROL_DESIGN' ));
ENDSEC;

DATA;
#1 = DIRECTION ( 'NONE',  ( 0.000000000000000000, 0.000000000000000000, 1.000000000000000000 ) ) ;
#2 = PERSON_AND_ORGANIZATION_ROLE ( 'creator' ) ;
#3 = VERTEX_POINT ( 'NONE', #19 ) ;
#4 = CIRCLE ( 'NONE', #179, 4.500000000000000888 ) ;
#5 = APPROVAL_PERSON_ORGANIZATION ( #298, #89, #252 ) ;
#6 = APPROVAL_ROLE ( '' ) ;
#7 = AXIS2_PLACEMENT_3D ( 'NONE', #94, #209, #27 ) ;
#8 = CARTESIAN_POINT ( 'NONE',  ( 0.000000000000000000, 0.000000000000000000, 0.000000000000000000 ) ) ;
#9 = AXIS2_PLACEMENT_3D ( 'NONE', #257, #236, #122 ) ;
#10 = CC_DESIGN_PERSON_AND_ORGANIZATION_ASSIGNMENT ( #217, #2, ( #284 ) ) ;
#11 = ORIENTED_EDGE ( 'NONE', *, *, #49, .T. ) ;
#12 = MANIFOLD_SOLID_BREP ( 'Zaoblit1', #105 ) ;
#13 = DIRECTION ( 'NONE',  ( -0.000000000000000000, -0.000000000000000000, -1.000000000000000000 ) ) ;
#14 = AXIS2_PLACEMENT_3D ( 'NONE', #42, #160, #297 ) ;
#15 = PRODUCT_DEFINITION_SHAPE ( 'NONE', 'NONE',  #284 ) ;
#16 = COORDINATED_UNIVERSAL_TIME_OFFSET ( 1, 0, .AHEAD. ) ;
#17 = ORIENTED_EDGE ( 'NONE', *, *, #30, .F. ) ;
#18 = LOCAL_TIME ( 11, 42, 32.00000000000000000, #203 ) ;
#19 = CARTESIAN_POINT ( 'NONE',  ( 4.500000000000000888, 5.510910596163089556E-16, 5.199999999999982414 ) ) ;
#20 = VERTEX_POINT ( 'NONE', #208 ) ;
#21 = AXIS2_PLACEMENT_3D ( 'NONE', #299, #84, #135 ) ;
#22 = DIRECTION ( 'NONE',  ( -1.000000000000000000, 0.000000000000000000, 0.000000000000000000 ) ) ;
#23 = AXIS2_PLACEMENT_3D ( 'NONE', #45, #70, #69 ) ;
#24 = CARTESIAN_POINT ( 'NONE',  ( 0.000000000000000000, 0.000000000000000000, 0.000000000000000000 ) ) ;
#25 = DIRECTION ( 'NONE',  ( 1.000000000000000000, 0.000000000000000000, 0.000000000000000000 ) ) ;
#26 = CARTESIAN_POINT ( 'NONE',  ( 0.000000000000000000, 0.000000000000000000, 1004.999999999999886 ) ) ;
#27 = DIRECTION ( 'NONE',  ( 1.000000000000000000, 0.000000000000000000, 0.000000000000000000 ) ) ;
#28 = CARTESIAN_POINT ( 'NONE',  ( 0.000000000000000000, 0.000000000000000000, 0.000000000000000000 ) ) ;
#29 = ORIENTED_EDGE ( 'NONE', *, *, #219, .T. ) ;
#30 = EDGE_CURVE ( 'NONE', #233, #109, #280, .T. ) ;
#31 = PRODUCT_DEFINITION_FORMATION_WITH_SPECIFIED_SOURCE ( 'LIBOVOLNÝ', '', #158, .NOT_KNOWN. ) ;
#32 = DIRECTION ( 'NONE',  ( 1.000000000000000000, 0.000000000000000000, 0.000000000000000000 ) ) ;
#33 = ADVANCED_FACE ( 'NONE', ( #86 ), #207, .F. ) ;
#34 = ORIENTED_EDGE ( 'NONE', *, *, #165, .F. ) ;
#35 = CARTESIAN_POINT ( 'NONE',  ( 4.700000000000000178, 0.000000000000000000, 5.199999999999982414 ) ) ;
#36 = PERSON_AND_ORGANIZATION_ROLE ( 'classification_officer' ) ;
#37 = ORIENTED_EDGE ( 'NONE', *, *, #147, .T. ) ;
#38 = APPROVAL_DATE_TIME ( #272, #89 ) ;
#39 = ORIENTED_EDGE ( 'NONE', *, *, #171, .T. ) ;
#40 = ADVANCED_FACE ( 'NONE', ( #247 ), #111, .F. ) ;
#41 =( GEOMETRIC_REPRESENTATION_CONTEXT ( 3 ) GLOBAL_UNCERTAINTY_ASSIGNED_CONTEXT ( ( #227 ) ) GLOBAL_UNIT_ASSIGNED_CONTEXT ( ( #76, #153, #125 ) ) REPRESENTATION_CONTEXT ( 'NONE', 'WORKASPACE' ) );
#42 = CARTESIAN_POINT ( 'NONE',  ( 0.000000000000000000, 0.000000000000000000, 0.000000000000000000 ) ) ;
#43 = DIRECTION ( 'NONE',  ( 0.000000000000000000, 0.000000000000000000, 1.000000000000000000 ) ) ;
#44 = EDGE_CURVE ( 'NONE', #3, #253, #51, .T. ) ;
#45 = CARTESIAN_POINT ( 'NONE',  ( 0.000000000000000000, 0.000000000000000000, 1004.999999999999886 ) ) ;
#46 = CARTESIAN_POINT ( 'NONE',  ( 0.000000000000000000, 0.000000000000000000, 5.199999999999982414 ) ) ;
#47 = DIRECTION ( 'NONE',  ( -0.000000000000000000, -0.000000000000000000, -1.000000000000000000 ) ) ;
#48 = CYLINDRICAL_SURFACE ( 'NONE', #248, 4.500000000000000888 ) ;
#49 = EDGE_CURVE ( 'NONE', #3, #109, #162, .T. ) ;
#50 = APPLICATION_PROTOCOL_DEFINITION ( 'international standard', 'config_control_design', 1994, #110 ) ;
#51 = CIRCLE ( 'NONE', #21, 4.500000000000000888 ) ;
#52 = VERTEX_POINT ( 'NONE', #226 ) ;
#53 = LINE ( 'NONE', #241, #65 ) ;
#54 = ORIENTED_EDGE ( 'NONE', *, *, #49, .F. ) ;
#55 = AXIS2_PLACEMENT_3D ( 'NONE', #28, #220, #56 ) ;
#56 = DIRECTION ( 'NONE',  ( 1.000000000000000000, 0.000000000000000000, 0.000000000000000000 ) ) ;
#57 = EDGE_CURVE ( 'NONE', #109, #233, #212, .T. ) ;
#58 = EDGE_LOOP ( 'NONE', ( #263, #199 ) ) ;
#59 = DIRECTION ( 'NONE',  ( 1.000000000000000000, 0.000000000000000000, 0.000000000000000000 ) ) ;
#60 = APPROVAL_STATUS ( 'not_yet_approved' ) ;
#61 = EDGE_LOOP ( 'NONE', ( #126, #178 ) ) ;
#62 = TOROIDAL_SURFACE ( 'NONE', #239, 4.700000000000000178, 0.2000000000000000111 ) ;
#63 = ORIENTED_EDGE ( 'NONE', *, *, #219, .F. ) ;
#64 = AXIS2_PLACEMENT_3D ( 'NONE', #302, #43, #93 ) ;
#65 = VECTOR ( 'NONE', #194, 1000.000000000000000 ) ;
#66 = PLANE ( 'NONE',  #195 ) ;
#67 = CC_DESIGN_DATE_AND_TIME_ASSIGNMENT ( #197, #175, ( #284 ) ) ;
#68 = DIRECTION ( 'NONE',  ( 1.000000000000000000, 0.000000000000000000, -0.000000000000000000 ) ) ;
#69 = DIRECTION ( 'NONE',  ( 1.000000000000000000, 0.000000000000000000, 0.000000000000000000 ) ) ;
#70 = DIRECTION ( 'NONE',  ( 0.000000000000000000, 0.000000000000000000, 1.000000000000000000 ) ) ;
#71 = CARTESIAN_POINT ( 'NONE',  ( -4.500000000000000888, 0.000000000000000000, 5.199999999999982414 ) ) ;
#72 = PERSON_AND_ORGANIZATION ( #138, #223 ) ;
#73 = CC_DESIGN_APPROVAL ( #234, ( #284 ) ) ;
#74 = ADVANCED_FACE ( 'NONE', ( #183 ), #62, .F. ) ;
#75 = APPROVAL_STATUS ( 'not_yet_approved' ) ;
#76 =( LENGTH_UNIT ( ) NAMED_UNIT ( * ) SI_UNIT ( .MILLI., .METRE. ) );
#77 = CARTESIAN_POINT ( 'NONE',  ( -7.000000000000000000, 0.000000000000000000, 0.000000000000000000 ) ) ;
#78 = AXIS2_PLACEMENT_3D ( 'NONE', #213, #167, #68 ) ;
#79 = DATE_TIME_ROLE ( 'classification_date' ) ;
#80 = VERTEX_POINT ( 'NONE', #146 ) ;
#81 = ORIENTED_EDGE ( 'NONE', *, *, #152, .T. ) ;
#82 = COORDINATED_UNIVERSAL_TIME_OFFSET ( 1, 0, .AHEAD. ) ;
#83 = DIRECTION ( 'NONE',  ( 0.000000000000000000, -1.000000000000000000, 0.000000000000000000 ) ) ;
#84 = DIRECTION ( 'NONE',  ( 0.000000000000000000, 0.000000000000000000, 1.000000000000000000 ) ) ;
#85 = AXIS2_PLACEMENT_3D ( 'NONE', #139, #270, #249 ) ;
#86 = FACE_OUTER_BOUND ( 'NONE', #103, .T. ) ;
#87 = CC_DESIGN_PERSON_AND_ORGANIZATION_ASSIGNMENT ( #285, #123, ( #158 ) ) ;
#88 = CARTESIAN_POINT ( 'NONE',  ( 4.500000000000000888, 5.510910596163089556E-16, 1004.999999999999886 ) ) ;
#89 = APPROVAL ( #60, 'NEURÈENÝ' ) ;
#90 = DIRECTION ( 'NONE',  ( 1.000000000000000000, 0.000000000000000000, 0.000000000000000000 ) ) ;
#91 = DIRECTION ( 'NONE',  ( -0.000000000000000000, -0.000000000000000000, -1.000000000000000000 ) ) ;
#92 = CC_DESIGN_APPROVAL ( #89, ( #232 ) ) ;
#93 = DIRECTION ( 'NONE',  ( 1.000000000000000000, 0.000000000000000000, 0.000000000000000000 ) ) ;
#94 = CARTESIAN_POINT ( 'NONE',  ( 0.000000000000000000, 0.000000000000000000, 5.000000000000000000 ) ) ;
#95 = EDGE_CURVE ( 'NONE', #52, #300, #100, .T. ) ;
#96 = APPROVAL_ROLE ( '' ) ;
#97 = CIRCLE ( 'NONE', #262, 7.000000000000000000 ) ;
#98 = ORIENTED_EDGE ( 'NONE', *, *, #205, .T. ) ;
#99 = CALENDAR_DATE ( 2022, 20, 6 ) ;
#100 = CIRCLE ( 'NONE', #274, 7.000000000000000000 ) ;
#101 = APPROVAL_DATE_TIME ( #124, #234 ) ;
#102 = APPLICATION_PROTOCOL_DEFINITION ( 'international standard', 'config_control_design', 1994, #184 ) ;
#103 = EDGE_LOOP ( 'NONE', ( #128, #202, #11, #17 ) ) ;
#104 = ORIENTED_EDGE ( 'NONE', *, *, #303, .T. ) ;
#105 = CLOSED_SHELL ( 'NONE', ( #74, #290, #230, #215, #156, #40, #267, #176, #33 ) ) ;
#106 = EDGE_LOOP ( 'NONE', ( #63, #231, #81, #250 ) ) ;
#107 = ADVANCED_BREP_SHAPE_REPRESENTATION ( '4f15', ( #12, #55 ), #41 ) ;
#108 = DATE_AND_TIME ( #268, #277 ) ;
#109 = VERTEX_POINT ( 'NONE', #114 ) ;
#110 = APPLICATION_CONTEXT ( 'configuration controlled 3d designs of mechanical parts and assemblies' ) ;
#111 = PLANE ( 'NONE',  #14 ) ;
#112 = EDGE_CURVE ( 'NONE', #20, #163, #145, .T. ) ;
#113 = ORIENTED_EDGE ( 'NONE', *, *, #307, .T. ) ;
#114 = CARTESIAN_POINT ( 'NONE',  ( 4.700000000000000178, 0.000000000000000000, 4.999999999999991118 ) ) ;
#115 = APPROVAL_PERSON_ORGANIZATION ( #72, #234, #96 ) ;
#116 = CARTESIAN_POINT ( 'NONE',  ( 0.000000000000000000, 0.000000000000000000, 5.199999999999982414 ) ) ;
#117 = FACE_OUTER_BOUND ( 'NONE', #225, .T. ) ;
#118 = AXIS2_PLACEMENT_3D ( 'NONE', #271, #206, #59 ) ;
#119 = FACE_OUTER_BOUND ( 'NONE', #155, .T. ) ;
#120 = CIRCLE ( 'NONE', #291, 4.500000000000000888 ) ;
#121 = LOCAL_TIME ( 11, 42, 32.00000000000000000, #196 ) ;
#122 = DIRECTION ( 'NONE',  ( -1.000000000000000000, 1.224646799147353454E-16, 0.000000000000000000 ) ) ;
#123 = PERSON_AND_ORGANIZATION_ROLE ( 'design_owner' ) ;
#124 = DATE_AND_TIME ( #149, #243 ) ;
#125 =( NAMED_UNIT ( * ) SI_UNIT ( $, .STERADIAN. ) SOLID_ANGLE_UNIT ( ) );
#126 = ORIENTED_EDGE ( 'NONE', *, *, #303, .F. ) ;
#127 = DIRECTION ( 'NONE',  ( -1.000000000000000000, 0.000000000000000000, 0.000000000000000000 ) ) ;
#128 = ORIENTED_EDGE ( 'NONE', *, *, #147, .F. ) ;
#129 = CIRCLE ( 'NONE', #9, 0.1999999999999996503 ) ;
#130 = MECHANICAL_CONTEXT ( 'NONE', #184, 'mechanical' ) ;
#131 = PERSON_AND_ORGANIZATION_ROLE ( 'creator' ) ;
#132 = DIRECTION ( 'NONE',  ( 0.000000000000000000, 0.000000000000000000, -1.000000000000000000 ) ) ;
#133 = CC_DESIGN_PERSON_AND_ORGANIZATION_ASSIGNMENT ( #269, #131, ( #31 ) ) ;
#134 = CARTESIAN_POINT ( 'NONE',  ( 0.000000000000000000, 0.000000000000000000, 5.000000000000000000 ) ) ;
#135 = DIRECTION ( 'NONE',  ( 1.000000000000000000, 0.000000000000000000, 0.000000000000000000 ) ) ;
#136 = CC_DESIGN_DATE_AND_TIME_ASSIGNMENT ( #296, #79, ( #232 ) ) ;
#137 = SHAPE_DEFINITION_REPRESENTATION ( #15, #107 ) ;
#138 = PERSON ( 'NEURÈENÝ', 'NEURÈENÝ', 'NEURÈENÝ', ('NEURÈENÝ'), ('NEURÈENÝ'), ('NEURÈENÝ') ) ;
#139 = CARTESIAN_POINT ( 'NONE',  ( 0.000000000000000000, 0.000000000000000000, 5.000000000000000000 ) ) ;
#140 = CYLINDRICAL_SURFACE ( 'NONE', #142, 7.000000000000000000 ) ;
#141 = LINE ( 'NONE', #144, #254 ) ;
#142 = AXIS2_PLACEMENT_3D ( 'NONE', #188, #281, #22 ) ;
#143 = CC_DESIGN_APPROVAL ( #293, ( #31 ) ) ;
#144 = CARTESIAN_POINT ( 'NONE',  ( -7.000000000000000000, 0.000000000000000000, 5.000000000000000000 ) ) ;
#145 = CIRCLE ( 'NONE', #7, 7.000000000000000000 ) ;
#146 = CARTESIAN_POINT ( 'NONE',  ( -4.500000000000000888, 0.000000000000000000, 1004.999999999999886 ) ) ;
#147 = EDGE_CURVE ( 'NONE', #253, #233, #129, .T. ) ;
#148 = AXIS2_PLACEMENT_3D ( 'NONE', #304, #91, #282 ) ;
#149 = CALENDAR_DATE ( 2022, 20, 6 ) ;
#150 = FACE_OUTER_BOUND ( 'NONE', #151, .T. ) ;
#151 = EDGE_LOOP ( 'NONE', ( #34, #29, #265, #292 ) ) ;
#152 = EDGE_CURVE ( 'NONE', #80, #253, #235, .T. ) ;
#153 =( NAMED_UNIT ( * ) PLANE_ANGLE_UNIT ( ) SI_UNIT ( $, .RADIAN. ) );
#154 = ORIENTED_EDGE ( 'NONE', *, *, #112, .T. ) ;
#155 = EDGE_LOOP ( 'NONE', ( #185, #218, #39, #104 ) ) ;
#156 = ADVANCED_FACE ( 'NONE', ( #258, #186 ), #192, .T. ) ;
#157 = ORIENTED_EDGE ( 'NONE', *, *, #187, .F. ) ;
#158 = PRODUCT ( '4f15', '4f15', '', ( #130 ) ) ;
#159 = SECURITY_CLASSIFICATION_LEVEL ( 'unclassified' ) ;
#160 = DIRECTION ( 'NONE',  ( 0.000000000000000000, 0.000000000000000000, 1.000000000000000000 ) ) ;
#161 = PERSON_AND_ORGANIZATION ( #138, #223 ) ;
#162 = CIRCLE ( 'NONE', #174, 0.1999999999999996503 ) ;
#163 = VERTEX_POINT ( 'NONE', #301 ) ;
#164 = CIRCLE ( 'NONE', #64, 7.000000000000000000 ) ;
#165 = EDGE_CURVE ( 'NONE', #255, #80, #286, .T. ) ;
#166 = DIRECTION ( 'NONE',  ( 0.000000000000000000, 0.000000000000000000, 1.000000000000000000 ) ) ;
#167 = DIRECTION ( 'NONE',  ( 0.000000000000000000, 0.000000000000000000, 1.000000000000000000 ) ) ;
#168 = DIRECTION ( 'NONE',  ( 0.000000000000000000, 0.000000000000000000, 1.000000000000000000 ) ) ;
#169 = DIRECTION ( 'NONE',  ( 1.000000000000000000, 0.000000000000000000, 0.000000000000000000 ) ) ;
#170 = CARTESIAN_POINT ( 'NONE',  ( 4.500000000000000888, 5.510910596163089556E-16, 1004.999999999999886 ) ) ;
#171 = EDGE_CURVE ( 'NONE', #163, #300, #141, .T. ) ;
#172 = CARTESIAN_POINT ( 'NONE',  ( 0.000000000000000000, 0.000000000000000000, 1004.999999999999886 ) ) ;
#173 = APPROVAL_PERSON_ORGANIZATION ( #264, #293, #6 ) ;
#174 = AXIS2_PLACEMENT_3D ( 'NONE', #35, #83, #132 ) ;
#175 = DATE_TIME_ROLE ( 'creation_date' ) ;
#176 = ADVANCED_FACE ( 'NONE', ( #238 ), #66, .T. ) ;
#177 = APPROVAL_DATE_TIME ( #108, #293 ) ;
#178 = ORIENTED_EDGE ( 'NONE', *, *, #95, .F. ) ;
#179 = AXIS2_PLACEMENT_3D ( 'NONE', #305, #237, #25 ) ;
#180 = ORIENTED_EDGE ( 'NONE', *, *, #222, .T. ) ;
#181 = CALENDAR_DATE ( 2022, 20, 6 ) ;
#182 = EDGE_LOOP ( 'NONE', ( #157, #37, #294, #54 ) ) ;
#183 = FACE_OUTER_BOUND ( 'NONE', #182, .T. ) ;
#184 = APPLICATION_CONTEXT ( 'configuration controlled 3d designs of mechanical parts and assemblies' ) ;
#185 = ORIENTED_EDGE ( 'NONE', *, *, #307, .F. ) ;
#186 = FACE_OUTER_BOUND ( 'NONE', #204, .T. ) ;
#187 = EDGE_CURVE ( 'NONE', #253, #3, #120, .T. ) ;
#188 = CARTESIAN_POINT ( 'NONE',  ( 0.000000000000000000, 0.000000000000000000, 5.000000000000000000 ) ) ;
#189 = DIRECTION ( 'NONE',  ( 1.000000000000000000, 0.000000000000000000, 0.000000000000000000 ) ) ;
#190 = AXIS2_PLACEMENT_3D ( 'NONE', #172, #242, #244 ) ;
#191 = CYLINDRICAL_SURFACE ( 'NONE', #148, 7.000000000000000000 ) ;
#192 = PLANE ( 'NONE',  #78 ) ;
#193 = CC_DESIGN_PERSON_AND_ORGANIZATION_ASSIGNMENT ( #161, #228, ( #31 ) ) ;
#194 = DIRECTION ( 'NONE',  ( -0.000000000000000000, -0.000000000000000000, -1.000000000000000000 ) ) ;
#195 = AXIS2_PLACEMENT_3D ( 'NONE', #26, #166, #210 ) ;
#196 = COORDINATED_UNIVERSAL_TIME_OFFSET ( 1, 0, .AHEAD. ) ;
#197 = DATE_AND_TIME ( #99, #121 ) ;
#198 = AXIS2_PLACEMENT_3D ( 'NONE', #134, #13, #275 ) ;
#199 = ORIENTED_EDGE ( 'NONE', *, *, #30, .T. ) ;
#200 = ORIENTED_EDGE ( 'NONE', *, *, #171, .F. ) ;
#201 = CALENDAR_DATE ( 2022, 20, 6 ) ;
#202 = ORIENTED_EDGE ( 'NONE', *, *, #44, .F. ) ;
#203 = COORDINATED_UNIVERSAL_TIME_OFFSET ( 1, 0, .AHEAD. ) ;
#204 = EDGE_LOOP ( 'NONE', ( #98, #154 ) ) ;
#205 = EDGE_CURVE ( 'NONE', #163, #20, #164, .T. ) ;
#206 = DIRECTION ( 'NONE',  ( 0.000000000000000000, 0.000000000000000000, 1.000000000000000000 ) ) ;
#207 = TOROIDAL_SURFACE ( 'NONE', #118, 4.700000000000000178, 0.2000000000000000111 ) ;
#208 = CARTESIAN_POINT ( 'NONE',  ( 7.000000000000000000, 8.572527594031473190E-16, 5.000000000000000000 ) ) ;
#209 = DIRECTION ( 'NONE',  ( 0.000000000000000000, 0.000000000000000000, 1.000000000000000000 ) ) ;
#210 = DIRECTION ( 'NONE',  ( 1.000000000000000000, 0.000000000000000000, -0.000000000000000000 ) ) ;
#211 = LINE ( 'NONE', #88, #240 ) ;
#212 = CIRCLE ( 'NONE', #198, 4.700000000000000178 ) ;
#213 = CARTESIAN_POINT ( 'NONE',  ( 0.000000000000000000, 0.000000000000000000, 5.000000000000000000 ) ) ;
#214 = VECTOR ( 'NONE', #216, 1000.000000000000000 ) ;
#215 = ADVANCED_FACE ( 'NONE', ( #119 ), #140, .T. ) ;
#216 = DIRECTION ( 'NONE',  ( -0.000000000000000000, -0.000000000000000000, -1.000000000000000000 ) ) ;
#217 = PERSON_AND_ORGANIZATION ( #138, #223 ) ;
#218 = ORIENTED_EDGE ( 'NONE', *, *, #205, .F. ) ;
#219 = EDGE_CURVE ( 'NONE', #255, #3, #211, .T. ) ;
#220 = DIRECTION ( 'NONE',  ( 0.000000000000000000, 0.000000000000000000, 1.000000000000000000 ) ) ;
#221 = APPROVAL_STATUS ( 'not_yet_approved' ) ;
#222 = EDGE_CURVE ( 'NONE', #80, #255, #4, .T. ) ;
#223 = ORGANIZATION ( 'NEURÈENÝ', 'NEURÈENÝ', '' ) ;
#224 = PERSON_AND_ORGANIZATION ( #138, #223 ) ;
#225 = EDGE_LOOP ( 'NONE', ( #273, #113, #276, #200 ) ) ;
#226 = CARTESIAN_POINT ( 'NONE',  ( 7.000000000000000000, 8.572527594031473190E-16, 0.000000000000000000 ) ) ;
#227 = UNCERTAINTY_MEASURE_WITH_UNIT (LENGTH_MEASURE( 1.000000000000000082E-05 ), #76, 'distance_accuracy_value', 'NONE');
#228 = PERSON_AND_ORGANIZATION_ROLE ( 'design_supplier' ) ;
#229 = EDGE_LOOP ( 'NONE', ( #180, #288 ) ) ;
#230 = ADVANCED_FACE ( 'NONE', ( #117 ), #191, .T. ) ;
#231 = ORIENTED_EDGE ( 'NONE', *, *, #222, .F. ) ;
#232 = SECURITY_CLASSIFICATION ( '', '', #159 ) ;
#233 = VERTEX_POINT ( 'NONE', #283 ) ;
#234 = APPROVAL ( #75, 'NEURÈENÝ' ) ;
#235 = LINE ( 'NONE', #306, #214 ) ;
#236 = DIRECTION ( 'NONE',  ( 1.224646799147353207E-16, 1.000000000000000000, -0.000000000000000000 ) ) ;
#237 = DIRECTION ( 'NONE',  ( 0.000000000000000000, 0.000000000000000000, 1.000000000000000000 ) ) ;
#238 = FACE_OUTER_BOUND ( 'NONE', #229, .T. ) ;
#239 = AXIS2_PLACEMENT_3D ( 'NONE', #116, #168, #169 ) ;
#240 = VECTOR ( 'NONE', #279, 1000.000000000000000 ) ;
#241 = CARTESIAN_POINT ( 'NONE',  ( 7.000000000000000000, 8.572527594031473190E-16, 5.000000000000000000 ) ) ;
#242 = DIRECTION ( 'NONE',  ( -0.000000000000000000, -0.000000000000000000, -1.000000000000000000 ) ) ;
#243 = LOCAL_TIME ( 11, 42, 32.00000000000000000, #289 ) ;
#244 = DIRECTION ( 'NONE',  ( -1.000000000000000000, 0.000000000000000000, 0.000000000000000000 ) ) ;
#245 = DIRECTION ( 'NONE',  ( -0.000000000000000000, -0.000000000000000000, -1.000000000000000000 ) ) ;
#246 = PRODUCT_RELATED_PRODUCT_CATEGORY ( 'detail', '', ( #158 ) ) ;
#247 = FACE_OUTER_BOUND ( 'NONE', #61, .T. ) ;
#248 = AXIS2_PLACEMENT_3D ( 'NONE', #266, #245, #127 ) ;
#249 = DIRECTION ( 'NONE',  ( 1.000000000000000000, 0.000000000000000000, 0.000000000000000000 ) ) ;
#250 = ORIENTED_EDGE ( 'NONE', *, *, #187, .T. ) ;
#251 = DESIGN_CONTEXT ( 'detailed design', #110, 'design' ) ;
#252 = APPROVAL_ROLE ( '' ) ;
#253 = VERTEX_POINT ( 'NONE', #71 ) ;
#254 = VECTOR ( 'NONE', #47, 1000.000000000000000 ) ;
#255 = VERTEX_POINT ( 'NONE', #170 ) ;
#256 = DIRECTION ( 'NONE',  ( 0.000000000000000000, 0.000000000000000000, 1.000000000000000000 ) ) ;
#257 = CARTESIAN_POINT ( 'NONE',  ( -4.700000000000000178, 5.755839955992559655E-16, 5.199999999999982414 ) ) ;
#258 = FACE_BOUND ( 'NONE', #58, .T. ) ;
#259 = LOCAL_TIME ( 11, 42, 32.00000000000000000, #82 ) ;
#260 = DIRECTION ( 'NONE',  ( 0.000000000000000000, 0.000000000000000000, 1.000000000000000000 ) ) ;
#261 = FACE_OUTER_BOUND ( 'NONE', #106, .T. ) ;
#262 = AXIS2_PLACEMENT_3D ( 'NONE', #8, #1, #32 ) ;
#263 = ORIENTED_EDGE ( 'NONE', *, *, #57, .T. ) ;
#264 = PERSON_AND_ORGANIZATION ( #138, #223 ) ;
#265 = ORIENTED_EDGE ( 'NONE', *, *, #44, .T. ) ;
#266 = CARTESIAN_POINT ( 'NONE',  ( 0.000000000000000000, 0.000000000000000000, 1004.999999999999886 ) ) ;
#267 = ADVANCED_FACE ( 'NONE', ( #261 ), #48, .T. ) ;
#268 = CALENDAR_DATE ( 2022, 20, 6 ) ;
#269 = PERSON_AND_ORGANIZATION ( #138, #223 ) ;
#270 = DIRECTION ( 'NONE',  ( -0.000000000000000000, -0.000000000000000000, -1.000000000000000000 ) ) ;
#271 = CARTESIAN_POINT ( 'NONE',  ( 0.000000000000000000, 0.000000000000000000, 5.199999999999982414 ) ) ;
#272 = DATE_AND_TIME ( #181, #259 ) ;
#273 = ORIENTED_EDGE ( 'NONE', *, *, #112, .F. ) ;
#274 = AXIS2_PLACEMENT_3D ( 'NONE', #24, #260, #189 ) ;
#275 = DIRECTION ( 'NONE',  ( 1.000000000000000000, 0.000000000000000000, 0.000000000000000000 ) ) ;
#276 = ORIENTED_EDGE ( 'NONE', *, *, #95, .T. ) ;
#277 = LOCAL_TIME ( 11, 42, 32.00000000000000000, #16 ) ;
#278 = CC_DESIGN_PERSON_AND_ORGANIZATION_ASSIGNMENT ( #224, #36, ( #232 ) ) ;
#279 = DIRECTION ( 'NONE',  ( -0.000000000000000000, -0.000000000000000000, -1.000000000000000000 ) ) ;
#280 = CIRCLE ( 'NONE', #85, 4.700000000000000178 ) ;
#281 = DIRECTION ( 'NONE',  ( -0.000000000000000000, -0.000000000000000000, -1.000000000000000000 ) ) ;
#282 = DIRECTION ( 'NONE',  ( -1.000000000000000000, 0.000000000000000000, 0.000000000000000000 ) ) ;
#283 = CARTESIAN_POINT ( 'NONE',  ( -4.700000000000000178, 5.755839955992559655E-16, 4.999999999999991118 ) ) ;
#284 = PRODUCT_DEFINITION ( 'NEZNÁMÝ', '', #31, #251 ) ;
#285 = PERSON_AND_ORGANIZATION ( #138, #223 ) ;
#286 = CIRCLE ( 'NONE', #23, 4.500000000000000888 ) ;
#287 = CYLINDRICAL_SURFACE ( 'NONE', #190, 4.500000000000000888 ) ;
#288 = ORIENTED_EDGE ( 'NONE', *, *, #165, .T. ) ;
#289 = COORDINATED_UNIVERSAL_TIME_OFFSET ( 1, 0, .AHEAD. ) ;
#290 = ADVANCED_FACE ( 'NONE', ( #150 ), #287, .T. ) ;
#291 = AXIS2_PLACEMENT_3D ( 'NONE', #46, #256, #90 ) ;
#292 = ORIENTED_EDGE ( 'NONE', *, *, #152, .F. ) ;
#293 = APPROVAL ( #221, 'NEURÈENÝ' ) ;
#294 = ORIENTED_EDGE ( 'NONE', *, *, #57, .F. ) ;
#295 = CC_DESIGN_SECURITY_CLASSIFICATION ( #232, ( #31 ) ) ;
#296 = DATE_AND_TIME ( #201, #18 ) ;
#297 = DIRECTION ( 'NONE',  ( 1.000000000000000000, 0.000000000000000000, -0.000000000000000000 ) ) ;
#298 = PERSON_AND_ORGANIZATION ( #138, #223 ) ;
#299 = CARTESIAN_POINT ( 'NONE',  ( 0.000000000000000000, 0.000000000000000000, 5.199999999999982414 ) ) ;
#300 = VERTEX_POINT ( 'NONE', #77 ) ;
#301 = CARTESIAN_POINT ( 'NONE',  ( -7.000000000000000000, 0.000000000000000000, 5.000000000000000000 ) ) ;
#302 = CARTESIAN_POINT ( 'NONE',  ( 0.000000000000000000, 0.000000000000000000, 5.000000000000000000 ) ) ;
#303 = EDGE_CURVE ( 'NONE', #300, #52, #97, .T. ) ;
#304 = CARTESIAN_POINT ( 'NONE',  ( 0.000000000000000000, 0.000000000000000000, 5.000000000000000000 ) ) ;
#305 = CARTESIAN_POINT ( 'NONE',  ( 0.000000000000000000, 0.000000000000000000, 1004.999999999999886 ) ) ;
#306 = CARTESIAN_POINT ( 'NONE',  ( -4.500000000000000888, 0.000000000000000000, 1004.999999999999886 ) ) ;
#307 = EDGE_CURVE ( 'NONE', #20, #52, #53, .T. ) ;
ENDSEC;
END-ISO-10303-21;
