ISO-10303-21;
HEADER;
FILE_DESCRIPTION (( 'STEP AP203' ),
    '1' );
FILE_NAME ('e125.STEP',
    '2022-06-20T09:16:53',
    ( '' ),
    ( '' ),
    'SwSTEP 2.0',
    'SolidWorks 2019',
    '' );
FILE_SCHEMA (( 'CONFIG_CONTROL_DESIGN' ));
ENDSEC;

DATA;
#1 = FACE_OUTER_BOUND ( 'NONE', #296, .T. ) ;
#2 = EDGE_CURVE ( 'NONE', #257, #231, #210, .T. ) ;
#3 = DIRECTION ( 'NONE',  ( -1.000000000000000000, 0.000000000000000000, 0.000000000000000000 ) ) ;
#4 = PLANE ( 'NONE',  #111 ) ;
#5 = DIRECTION ( 'NONE',  ( 1.000000000000000000, 0.000000000000000000, -0.000000000000000000 ) ) ;
#6 = MANIFOLD_SOLID_BREP ( 'Zaoblit1', #130 ) ;
#7 = AXIS2_PLACEMENT_3D ( 'NONE', #188, #73, #264 ) ;
#8 = CC_DESIGN_PERSON_AND_ORGANIZATION_ASSIGNMENT ( #54, #293, ( #302 ) ) ;
#9 = DATE_AND_TIME ( #154, #76 ) ;
#10 = VECTOR ( 'NONE', #219, 1000.000000000000000 ) ;
#11 = EDGE_LOOP ( 'NONE', ( #278, #162, #134, #232 ) ) ;
#12 = CALENDAR_DATE ( 2022, 20, 6 ) ;
#13 = ORIENTED_EDGE ( 'NONE', *, *, #299, .F. ) ;
#14 = VERTEX_POINT ( 'NONE', #115 ) ;
#15 = AXIS2_PLACEMENT_3D ( 'NONE', #117, #261, #41 ) ;
#16 = ADVANCED_FACE ( 'NONE', ( #35 ), #110, .T. ) ;
#17 = ORIENTED_EDGE ( 'NONE', *, *, #131, .T. ) ;
#18 = DIRECTION ( 'NONE',  ( 0.000000000000000000, 0.000000000000000000, 1.000000000000000000 ) ) ;
#19 = CARTESIAN_POINT ( 'NONE',  ( 16.00000000000000000, 1.959434878635765131E-15, 135.0000000000000000 ) ) ;
#20 = CC_DESIGN_APPROVAL ( #84, ( #294 ) ) ;
#21 = LINE ( 'NONE', #144, #250 ) ;
#22 = CARTESIAN_POINT ( 'NONE',  ( 16.19999999999999929, 0.000000000000000000, 10.00000000000000000 ) ) ;
#23 = FACE_OUTER_BOUND ( 'NONE', #11, .T. ) ;
#24 = DIRECTION ( 'NONE',  ( 1.000000000000000000, 0.000000000000000000, 0.000000000000000000 ) ) ;
#25 = CARTESIAN_POINT ( 'NONE',  ( 0.000000000000000000, 0.000000000000000000, 10.00000000000000000 ) ) ;
#26 = EDGE_CURVE ( 'NONE', #159, #183, #233, .T. ) ;
#27 = CIRCLE ( 'NONE', #200, 20.00000000000000000 ) ;
#28 = AXIS2_PLACEMENT_3D ( 'NONE', #151, #74, #174 ) ;
#29 = DIRECTION ( 'NONE',  ( 0.000000000000000000, 0.000000000000000000, 1.000000000000000000 ) ) ;
#30 = PERSON_AND_ORGANIZATION_ROLE ( 'design_owner' ) ;
#31 = DATE_AND_TIME ( #12, #274 ) ;
#32 = TOROIDAL_SURFACE ( 'NONE', #143, 16.19999999999999929, 0.2000000000000000111 ) ;
#33 = PERSON_AND_ORGANIZATION ( #220, #295 ) ;
#34 = ORIENTED_EDGE ( 'NONE', *, *, #56, .F. ) ;
#35 = FACE_OUTER_BOUND ( 'NONE', #87, .T. ) ;
#36 = ORIENTED_EDGE ( 'NONE', *, *, #138, .T. ) ;
#37 = ORIENTED_EDGE ( 'NONE', *, *, #192, .T. ) ;
#38 = AXIS2_PLACEMENT_3D ( 'NONE', #139, #18, #255 ) ;
#39 = VERTEX_POINT ( 'NONE', #45 ) ;
#40 = CARTESIAN_POINT ( 'NONE',  ( 0.000000000000000000, 0.000000000000000000, 10.20000000000000107 ) ) ;
#41 = DIRECTION ( 'NONE',  ( 1.000000000000000000, 0.000000000000000000, -0.000000000000000000 ) ) ;
#42 = CIRCLE ( 'NONE', #69, 16.00000000000000000 ) ;
#43 = FACE_OUTER_BOUND ( 'NONE', #207, .T. ) ;
#44 = CARTESIAN_POINT ( 'NONE',  ( 0.000000000000000000, 0.000000000000000000, 135.0000000000000000 ) ) ;
#45 = CARTESIAN_POINT ( 'NONE',  ( 16.00000000000000000, 1.959434878635765131E-15, 135.0000000000000000 ) ) ;
#46 = EDGE_CURVE ( 'NONE', #108, #113, #27, .T. ) ;
#47 = CARTESIAN_POINT ( 'NONE',  ( -20.00000000000000000, 0.000000000000000000, 0.000000000000000000 ) ) ;
#48 = CARTESIAN_POINT ( 'NONE',  ( -20.00000000000000000, 0.000000000000000000, 10.00000000000000000 ) ) ;
#49 = CARTESIAN_POINT ( 'NONE',  ( 0.000000000000000000, 0.000000000000000000, 135.0000000000000000 ) ) ;
#50 =( GEOMETRIC_REPRESENTATION_CONTEXT ( 3 ) GLOBAL_UNCERTAINTY_ASSIGNED_CONTEXT ( ( #287 ) ) GLOBAL_UNIT_ASSIGNED_CONTEXT ( ( #166, #168, #100 ) ) REPRESENTATION_CONTEXT ( 'NONE', 'WORKASPACE' ) );
#51 = DIRECTION ( 'NONE',  ( 1.000000000000000000, 0.000000000000000000, 0.000000000000000000 ) ) ;
#52 = DIRECTION ( 'NONE',  ( 0.000000000000000000, 0.000000000000000000, 1.000000000000000000 ) ) ;
#53 = CC_DESIGN_PERSON_AND_ORGANIZATION_ASSIGNMENT ( #177, #198, ( #294 ) ) ;
#54 = PERSON_AND_ORGANIZATION ( #220, #295 ) ;
#55 = APPROVAL_ROLE ( '' ) ;
#56 = EDGE_CURVE ( 'NONE', #39, #300, #236, .T. ) ;
#57 = SHAPE_DEFINITION_REPRESENTATION ( #89, #107 ) ;
#58 = PRODUCT_DEFINITION_FORMATION_WITH_SPECIFIED_SOURCE ( 'LIBOVOLNÝ', '', #189, .NOT_KNOWN. ) ;
#59 = ORIENTED_EDGE ( 'NONE', *, *, #26, .T. ) ;
#60 = APPROVAL ( #275, 'NEURÈENÝ' ) ;
#61 = ORIENTED_EDGE ( 'NONE', *, *, #46, .T. ) ;
#62 = ORIENTED_EDGE ( 'NONE', *, *, #106, .F. ) ;
#63 = ORIENTED_EDGE ( 'NONE', *, *, #71, .F. ) ;
#64 = CIRCLE ( 'NONE', #292, 16.00000000000000000 ) ;
#65 = CC_DESIGN_SECURITY_CLASSIFICATION ( #302, ( #58 ) ) ;
#66 = ORIENTED_EDGE ( 'NONE', *, *, #2, .F. ) ;
#67 = DIRECTION ( 'NONE',  ( 1.000000000000000000, 0.000000000000000000, 0.000000000000000000 ) ) ;
#68 = CARTESIAN_POINT ( 'NONE',  ( 16.19999999999999929, 0.000000000000000000, 10.20000000000000107 ) ) ;
#69 = AXIS2_PLACEMENT_3D ( 'NONE', #120, #147, #24 ) ;
#70 = PERSON_AND_ORGANIZATION ( #220, #295 ) ;
#71 = EDGE_CURVE ( 'NONE', #90, #159, #104, .T. ) ;
#72 = DIRECTION ( 'NONE',  ( -0.000000000000000000, -0.000000000000000000, -1.000000000000000000 ) ) ;
#73 = DIRECTION ( 'NONE',  ( -0.000000000000000000, -0.000000000000000000, -1.000000000000000000 ) ) ;
#74 = DIRECTION ( 'NONE',  ( 0.000000000000000000, 0.000000000000000000, 1.000000000000000000 ) ) ;
#75 = CARTESIAN_POINT ( 'NONE',  ( 0.000000000000000000, 0.000000000000000000, 0.000000000000000000 ) ) ;
#76 = LOCAL_TIME ( 11, 16, 53.00000000000000000, #153 ) ;
#77 = APPROVAL_STATUS ( 'not_yet_approved' ) ;
#78 = APPROVAL_DATE_TIME ( #109, #84 ) ;
#79 = CIRCLE ( 'NONE', #223, 16.00000000000000000 ) ;
#80 = EDGE_CURVE ( 'NONE', #300, #90, #64, .T. ) ;
#81 = CALENDAR_DATE ( 2022, 20, 6 ) ;
#82 = DATE_AND_TIME ( #81, #182 ) ;
#83 = ORIENTED_EDGE ( 'NONE', *, *, #26, .F. ) ;
#84 = APPROVAL ( #146, 'NEURÈENÝ' ) ;
#85 = CIRCLE ( 'NONE', #28, 16.00000000000000000 ) ;
#86 = ORIENTED_EDGE ( 'NONE', *, *, #2, .T. ) ;
#87 = EDGE_LOOP ( 'NONE', ( #34, #135, #88, #283 ) ) ;
#88 = ORIENTED_EDGE ( 'NONE', *, *, #273, .T. ) ;
#89 = PRODUCT_DEFINITION_SHAPE ( 'NONE', 'NONE',  #294 ) ;
#90 = VERTEX_POINT ( 'NONE', #213 ) ;
#91 = AXIS2_PLACEMENT_3D ( 'NONE', #75, #52, #265 ) ;
#92 = DIRECTION ( 'NONE',  ( 1.000000000000000000, 0.000000000000000000, 0.000000000000000000 ) ) ;
#93 = CYLINDRICAL_SURFACE ( 'NONE', #7, 20.00000000000000000 ) ;
#94 = CC_DESIGN_PERSON_AND_ORGANIZATION_ASSIGNMENT ( #249, #129, ( #58 ) ) ;
#95 = CARTESIAN_POINT ( 'NONE',  ( 20.00000000000000000, 2.449293598294706513E-15, 0.000000000000000000 ) ) ;
#96 = DIRECTION ( 'NONE',  ( 1.000000000000000000, 0.000000000000000000, 0.000000000000000000 ) ) ;
#97 = CIRCLE ( 'NONE', #199, 20.00000000000000000 ) ;
#98 = CALENDAR_DATE ( 2022, 20, 6 ) ;
#99 = DIRECTION ( 'NONE',  ( 0.000000000000000000, -1.000000000000000000, 0.000000000000000000 ) ) ;
#100 =( NAMED_UNIT ( * ) SI_UNIT ( $, .STERADIAN. ) SOLID_ANGLE_UNIT ( ) );
#101 = DIRECTION ( 'NONE',  ( -1.000000000000000000, 0.000000000000000000, 0.000000000000000000 ) ) ;
#102 = DIRECTION ( 'NONE',  ( 1.000000000000000000, 0.000000000000000000, -0.000000000000000000 ) ) ;
#103 = CARTESIAN_POINT ( 'NONE',  ( 0.000000000000000000, 0.000000000000000000, 0.000000000000000000 ) ) ;
#104 = CIRCLE ( 'NONE', #186, 0.1999999999999987899 ) ;
#105 = DATE_TIME_ROLE ( 'creation_date' ) ;
#106 = EDGE_CURVE ( 'NONE', #300, #183, #205, .T. ) ;
#107 = ADVANCED_BREP_SHAPE_REPRESENTATION ( 'e125', ( #6, #91 ), #50 ) ;
#108 = VERTEX_POINT ( 'NONE', #48 ) ;
#109 = DATE_AND_TIME ( #98, #269 ) ;
#110 = CYLINDRICAL_SURFACE ( 'NONE', #244, 16.00000000000000000 ) ;
#111 = AXIS2_PLACEMENT_3D ( 'NONE', #103, #119, #102 ) ;
#112 = EDGE_LOOP ( 'NONE', ( #63, #185, #234, #83 ) ) ;
#113 = VERTEX_POINT ( 'NONE', #239 ) ;
#114 = ADVANCED_FACE ( 'NONE', ( #194 ), #32, .F. ) ;
#115 = CARTESIAN_POINT ( 'NONE',  ( -16.00000000000000000, 0.000000000000000000, 135.0000000000000000 ) ) ;
#116 = DIRECTION ( 'NONE',  ( 0.000000000000000000, 0.000000000000000000, 1.000000000000000000 ) ) ;
#117 = CARTESIAN_POINT ( 'NONE',  ( 0.000000000000000000, 0.000000000000000000, 10.00000000000000000 ) ) ;
#118 = CC_DESIGN_DATE_AND_TIME_ASSIGNMENT ( #31, #105, ( #294 ) ) ;
#119 = DIRECTION ( 'NONE',  ( 0.000000000000000000, 0.000000000000000000, 1.000000000000000000 ) ) ;
#120 = CARTESIAN_POINT ( 'NONE',  ( 0.000000000000000000, 0.000000000000000000, 135.0000000000000000 ) ) ;
#121 = DESIGN_CONTEXT ( 'detailed design', #281, 'design' ) ;
#122 = DIRECTION ( 'NONE',  ( 1.000000000000000000, 0.000000000000000000, 0.000000000000000000 ) ) ;
#123 = FACE_OUTER_BOUND ( 'NONE', #184, .T. ) ;
#124 = VECTOR ( 'NONE', #286, 1000.000000000000000 ) ;
#125 = CARTESIAN_POINT ( 'NONE',  ( 0.000000000000000000, 0.000000000000000000, 10.20000000000000107 ) ) ;
#126 = CARTESIAN_POINT ( 'NONE',  ( 20.00000000000000000, 2.449293598294706513E-15, 10.00000000000000000 ) ) ;
#127 = MECHANICAL_CONTEXT ( 'NONE', #209, 'mechanical' ) ;
#128 = LINE ( 'NONE', #170, #10 ) ;
#129 = PERSON_AND_ORGANIZATION_ROLE ( 'design_supplier' ) ;
#130 = CLOSED_SHELL ( 'NONE', ( #225, #285, #204, #164, #160, #280, #16, #240, #114 ) ) ;
#131 = EDGE_CURVE ( 'NONE', #113, #108, #262, .T. ) ;
#132 = DATE_AND_TIME ( #229, #137 ) ;
#133 = APPROVAL_PERSON_ORGANIZATION ( #180, #60, #55 ) ;
#134 = ORIENTED_EDGE ( 'NONE', *, *, #80, .T. ) ;
#135 = ORIENTED_EDGE ( 'NONE', *, *, #192, .F. ) ;
#136 = ORIENTED_EDGE ( 'NONE', *, *, #251, .F. ) ;
#137 = LOCAL_TIME ( 11, 16, 53.00000000000000000, #156 ) ;
#138 = EDGE_CURVE ( 'NONE', #113, #231, #284, .T. ) ;
#139 = CARTESIAN_POINT ( 'NONE',  ( 0.000000000000000000, 0.000000000000000000, 0.000000000000000000 ) ) ;
#140 = CARTESIAN_POINT ( 'NONE',  ( 0.000000000000000000, 0.000000000000000000, 135.0000000000000000 ) ) ;
#141 = PRODUCT_RELATED_PRODUCT_CATEGORY ( 'detail', '', ( #189 ) ) ;
#142 = CARTESIAN_POINT ( 'NONE',  ( 0.000000000000000000, 0.000000000000000000, 10.20000000000000107 ) ) ;
#143 = AXIS2_PLACEMENT_3D ( 'NONE', #40, #245, #92 ) ;
#144 = CARTESIAN_POINT ( 'NONE',  ( -20.00000000000000000, 0.000000000000000000, 10.00000000000000000 ) ) ;
#145 = DIRECTION ( 'NONE',  ( 1.000000000000000000, 0.000000000000000000, 0.000000000000000000 ) ) ;
#146 = APPROVAL_STATUS ( 'not_yet_approved' ) ;
#147 = DIRECTION ( 'NONE',  ( 0.000000000000000000, 0.000000000000000000, 1.000000000000000000 ) ) ;
#148 = CARTESIAN_POINT ( 'NONE',  ( 0.000000000000000000, 0.000000000000000000, 135.0000000000000000 ) ) ;
#149 = CARTESIAN_POINT ( 'NONE',  ( 0.000000000000000000, 0.000000000000000000, 10.00000000000000000 ) ) ;
#150 = TOROIDAL_SURFACE ( 'NONE', #258, 16.19999999999999929, 0.2000000000000000111 ) ;
#151 = CARTESIAN_POINT ( 'NONE',  ( 0.000000000000000000, 0.000000000000000000, 10.20000000000000107 ) ) ;
#152 = CYLINDRICAL_SURFACE ( 'NONE', #277, 16.00000000000000000 ) ;
#153 = COORDINATED_UNIVERSAL_TIME_OFFSET ( 1, 0, .AHEAD. ) ;
#154 = CALENDAR_DATE ( 2022, 20, 6 ) ;
#155 = AXIS2_PLACEMENT_3D ( 'NONE', #25, #217, #67 ) ;
#156 = COORDINATED_UNIVERSAL_TIME_OFFSET ( 1, 0, .AHEAD. ) ;
#157 = AXIS2_PLACEMENT_3D ( 'NONE', #193, #242, #96 ) ;
#158 = EDGE_LOOP ( 'NONE', ( #61, #17 ) ) ;
#159 = VERTEX_POINT ( 'NONE', #305 ) ;
#160 = ADVANCED_FACE ( 'NONE', ( #169, #216 ), #165, .T. ) ;
#161 = AXIS2_PLACEMENT_3D ( 'NONE', #291, #29, #303 ) ;
#162 = ORIENTED_EDGE ( 'NONE', *, *, #56, .T. ) ;
#163 = CARTESIAN_POINT ( 'NONE',  ( 0.000000000000000000, 0.000000000000000000, 10.00000000000000000 ) ) ;
#164 = ADVANCED_FACE ( 'NONE', ( #238 ), #93, .T. ) ;
#165 = PLANE ( 'NONE',  #15 ) ;
#166 =( LENGTH_UNIT ( ) NAMED_UNIT ( * ) SI_UNIT ( .MILLI., .METRE. ) );
#167 = DIRECTION ( 'NONE',  ( 1.224646799147353207E-16, 1.000000000000000000, -0.000000000000000000 ) ) ;
#168 =( NAMED_UNIT ( * ) PLANE_ANGLE_UNIT ( ) SI_UNIT ( $, .RADIAN. ) );
#169 = FACE_BOUND ( 'NONE', #206, .T. ) ;
#170 = CARTESIAN_POINT ( 'NONE',  ( -16.00000000000000000, 0.000000000000000000, 135.0000000000000000 ) ) ;
#171 = DIRECTION ( 'NONE',  ( 0.000000000000000000, 0.000000000000000000, 1.000000000000000000 ) ) ;
#172 = EDGE_CURVE ( 'NONE', #39, #14, #79, .T. ) ;
#173 = DIRECTION ( 'NONE',  ( -0.000000000000000000, -0.000000000000000000, -1.000000000000000000 ) ) ;
#174 = DIRECTION ( 'NONE',  ( 1.000000000000000000, 0.000000000000000000, 0.000000000000000000 ) ) ;
#175 = VECTOR ( 'NONE', #72, 1000.000000000000000 ) ;
#176 = CC_DESIGN_PERSON_AND_ORGANIZATION_ASSIGNMENT ( #201, #224, ( #58 ) ) ;
#177 = PERSON_AND_ORGANIZATION ( #220, #295 ) ;
#178 = CC_DESIGN_APPROVAL ( #60, ( #58 ) ) ;
#179 = COORDINATED_UNIVERSAL_TIME_OFFSET ( 1, 0, .AHEAD. ) ;
#180 = PERSON_AND_ORGANIZATION ( #220, #295 ) ;
#181 = ORIENTED_EDGE ( 'NONE', *, *, #46, .F. ) ;
#182 = LOCAL_TIME ( 11, 16, 53.00000000000000000, #253 ) ;
#183 = VERTEX_POINT ( 'NONE', #22 ) ;
#184 = EDGE_LOOP ( 'NONE', ( #208, #36, #256, #136 ) ) ;
#185 = ORIENTED_EDGE ( 'NONE', *, *, #80, .F. ) ;
#186 = AXIS2_PLACEMENT_3D ( 'NONE', #211, #167, #307 ) ;
#187 = DIRECTION ( 'NONE',  ( 0.000000000000000000, 0.000000000000000000, -1.000000000000000000 ) ) ;
#188 = CARTESIAN_POINT ( 'NONE',  ( 0.000000000000000000, 0.000000000000000000, 10.00000000000000000 ) ) ;
#189 = PRODUCT ( 'e125', 'e125', '', ( #127 ) ) ;
#190 = APPLICATION_PROTOCOL_DEFINITION ( 'international standard', 'config_control_design', 1994, #209 ) ;
#191 = DIRECTION ( 'NONE',  ( -0.000000000000000000, -0.000000000000000000, -1.000000000000000000 ) ) ;
#192 = EDGE_CURVE ( 'NONE', #14, #39, #42, .T. ) ;
#193 = CARTESIAN_POINT ( 'NONE',  ( 0.000000000000000000, 0.000000000000000000, 10.00000000000000000 ) ) ;
#194 = FACE_OUTER_BOUND ( 'NONE', #112, .T. ) ;
#195 = DIRECTION ( 'NONE',  ( -1.000000000000000000, 0.000000000000000000, 0.000000000000000000 ) ) ;
#196 = DIRECTION ( 'NONE',  ( 0.000000000000000000, 0.000000000000000000, 1.000000000000000000 ) ) ;
#197 = APPROVAL_ROLE ( '' ) ;
#198 = PERSON_AND_ORGANIZATION_ROLE ( 'creator' ) ;
#199 = AXIS2_PLACEMENT_3D ( 'NONE', #270, #248, #51 ) ;
#200 = AXIS2_PLACEMENT_3D ( 'NONE', #163, #260, #212 ) ;
#201 = PERSON_AND_ORGANIZATION ( #220, #295 ) ;
#202 = ORIENTED_EDGE ( 'NONE', *, *, #138, .F. ) ;
#203 = ORIENTED_EDGE ( 'NONE', *, *, #251, .T. ) ;
#204 = ADVANCED_FACE ( 'NONE', ( #123 ), #267, .T. ) ;
#205 = CIRCLE ( 'NONE', #254, 0.2000000000000005107 ) ;
#206 = EDGE_LOOP ( 'NONE', ( #276, #59 ) ) ;
#207 = EDGE_LOOP ( 'NONE', ( #66, #228 ) ) ;
#208 = ORIENTED_EDGE ( 'NONE', *, *, #131, .F. ) ;
#209 = APPLICATION_CONTEXT ( 'configuration controlled 3d designs of mechanical parts and assemblies' ) ;
#210 = CIRCLE ( 'NONE', #38, 20.00000000000000000 ) ;
#211 = CARTESIAN_POINT ( 'NONE',  ( -16.19999999999999929, 1.983927814618711846E-15, 10.20000000000000107 ) ) ;
#212 = DIRECTION ( 'NONE',  ( 1.000000000000000000, 0.000000000000000000, 0.000000000000000000 ) ) ;
#213 = CARTESIAN_POINT ( 'NONE',  ( -16.00000000000000000, 0.000000000000000000, 10.20000000000000107 ) ) ;
#214 = COORDINATED_UNIVERSAL_TIME_OFFSET ( 1, 0, .AHEAD. ) ;
#215 = EDGE_CURVE ( 'NONE', #231, #257, #97, .T. ) ;
#216 = FACE_OUTER_BOUND ( 'NONE', #158, .T. ) ;
#217 = DIRECTION ( 'NONE',  ( -0.000000000000000000, -0.000000000000000000, -1.000000000000000000 ) ) ;
#218 = DIRECTION ( 'NONE',  ( -0.000000000000000000, -0.000000000000000000, -1.000000000000000000 ) ) ;
#219 = DIRECTION ( 'NONE',  ( -0.000000000000000000, -0.000000000000000000, -1.000000000000000000 ) ) ;
#220 = PERSON ( 'NEURÈENÝ', 'NEURÈENÝ', 'NEURÈENÝ', ('NEURÈENÝ'), ('NEURÈENÝ'), ('NEURÈENÝ') ) ;
#221 = EDGE_CURVE ( 'NONE', #90, #300, #85, .T. ) ;
#222 = APPLICATION_PROTOCOL_DEFINITION ( 'international standard', 'config_control_design', 1994, #281 ) ;
#223 = AXIS2_PLACEMENT_3D ( 'NONE', #44, #171, #145 ) ;
#224 = PERSON_AND_ORGANIZATION_ROLE ( 'creator' ) ;
#225 = ADVANCED_FACE ( 'NONE', ( #1 ), #150, .F. ) ;
#226 = APPROVAL_DATE_TIME ( #132, #60 ) ;
#227 = APPROVAL_PERSON_ORGANIZATION ( #70, #84, #241 ) ;
#228 = ORIENTED_EDGE ( 'NONE', *, *, #215, .F. ) ;
#229 = CALENDAR_DATE ( 2022, 20, 6 ) ;
#230 = CC_DESIGN_PERSON_AND_ORGANIZATION_ASSIGNMENT ( #288, #30, ( #189 ) ) ;
#231 = VERTEX_POINT ( 'NONE', #95 ) ;
#232 = ORIENTED_EDGE ( 'NONE', *, *, #273, .F. ) ;
#233 = CIRCLE ( 'NONE', #157, 16.19999999999999929 ) ;
#234 = ORIENTED_EDGE ( 'NONE', *, *, #106, .T. ) ;
#235 = EDGE_LOOP ( 'NONE', ( #202, #181, #203, #86 ) ) ;
#236 = LINE ( 'NONE', #19, #124 ) ;
#237 = APPROVAL_PERSON_ORGANIZATION ( #33, #304, #197 ) ;
#238 = FACE_OUTER_BOUND ( 'NONE', #235, .T. ) ;
#239 = CARTESIAN_POINT ( 'NONE',  ( 20.00000000000000000, 2.449293598294706513E-15, 10.00000000000000000 ) ) ;
#240 = ADVANCED_FACE ( 'NONE', ( #247 ), #268, .T. ) ;
#241 = APPROVAL_ROLE ( '' ) ;
#242 = DIRECTION ( 'NONE',  ( -0.000000000000000000, -0.000000000000000000, -1.000000000000000000 ) ) ;
#243 = DIRECTION ( 'NONE',  ( 0.000000000000000000, 0.000000000000000000, 1.000000000000000000 ) ) ;
#244 = AXIS2_PLACEMENT_3D ( 'NONE', #140, #266, #101 ) ;
#245 = DIRECTION ( 'NONE',  ( 0.000000000000000000, 0.000000000000000000, 1.000000000000000000 ) ) ;
#246 = CC_DESIGN_APPROVAL ( #304, ( #302 ) ) ;
#247 = FACE_OUTER_BOUND ( 'NONE', #279, .T. ) ;
#248 = DIRECTION ( 'NONE',  ( 0.000000000000000000, 0.000000000000000000, 1.000000000000000000 ) ) ;
#249 = PERSON_AND_ORGANIZATION ( #220, #295 ) ;
#250 = VECTOR ( 'NONE', #173, 1000.000000000000000 ) ;
#251 = EDGE_CURVE ( 'NONE', #108, #257, #21, .T. ) ;
#252 = SECURITY_CLASSIFICATION_LEVEL ( 'unclassified' ) ;
#253 = COORDINATED_UNIVERSAL_TIME_OFFSET ( 1, 0, .AHEAD. ) ;
#254 = AXIS2_PLACEMENT_3D ( 'NONE', #68, #99, #187 ) ;
#255 = DIRECTION ( 'NONE',  ( 1.000000000000000000, 0.000000000000000000, 0.000000000000000000 ) ) ;
#256 = ORIENTED_EDGE ( 'NONE', *, *, #215, .T. ) ;
#257 = VERTEX_POINT ( 'NONE', #47 ) ;
#258 = AXIS2_PLACEMENT_3D ( 'NONE', #125, #196, #122 ) ;
#259 = ORIENTED_EDGE ( 'NONE', *, *, #71, .T. ) ;
#260 = DIRECTION ( 'NONE',  ( 0.000000000000000000, 0.000000000000000000, 1.000000000000000000 ) ) ;
#261 = DIRECTION ( 'NONE',  ( 0.000000000000000000, 0.000000000000000000, 1.000000000000000000 ) ) ;
#262 = CIRCLE ( 'NONE', #161, 20.00000000000000000 ) ;
#263 = CC_DESIGN_DATE_AND_TIME_ASSIGNMENT ( #9, #271, ( #302 ) ) ;
#264 = DIRECTION ( 'NONE',  ( -1.000000000000000000, 0.000000000000000000, 0.000000000000000000 ) ) ;
#265 = DIRECTION ( 'NONE',  ( 1.000000000000000000, 0.000000000000000000, 0.000000000000000000 ) ) ;
#266 = DIRECTION ( 'NONE',  ( -0.000000000000000000, -0.000000000000000000, -1.000000000000000000 ) ) ;
#267 = CYLINDRICAL_SURFACE ( 'NONE', #282, 20.00000000000000000 ) ;
#268 = PLANE ( 'NONE',  #297 ) ;
#269 = LOCAL_TIME ( 11, 16, 53.00000000000000000, #214 ) ;
#270 = CARTESIAN_POINT ( 'NONE',  ( 0.000000000000000000, 0.000000000000000000, 0.000000000000000000 ) ) ;
#271 = DATE_TIME_ROLE ( 'classification_date' ) ;
#272 = APPROVAL_DATE_TIME ( #82, #304 ) ;
#273 = EDGE_CURVE ( 'NONE', #14, #90, #128, .T. ) ;
#274 = LOCAL_TIME ( 11, 16, 53.00000000000000000, #179 ) ;
#275 = APPROVAL_STATUS ( 'not_yet_approved' ) ;
#276 = ORIENTED_EDGE ( 'NONE', *, *, #299, .T. ) ;
#277 = AXIS2_PLACEMENT_3D ( 'NONE', #49, #191, #195 ) ;
#278 = ORIENTED_EDGE ( 'NONE', *, *, #172, .F. ) ;
#279 = EDGE_LOOP ( 'NONE', ( #37, #301 ) ) ;
#280 = ADVANCED_FACE ( 'NONE', ( #43 ), #4, .F. ) ;
#281 = APPLICATION_CONTEXT ( 'configuration controlled 3d designs of mechanical parts and assemblies' ) ;
#282 = AXIS2_PLACEMENT_3D ( 'NONE', #149, #218, #3 ) ;
#283 = ORIENTED_EDGE ( 'NONE', *, *, #221, .T. ) ;
#284 = LINE ( 'NONE', #126, #175 ) ;
#285 = ADVANCED_FACE ( 'NONE', ( #23 ), #152, .T. ) ;
#286 = DIRECTION ( 'NONE',  ( -0.000000000000000000, -0.000000000000000000, -1.000000000000000000 ) ) ;
#287 = UNCERTAINTY_MEASURE_WITH_UNIT (LENGTH_MEASURE( 1.000000000000000082E-05 ), #166, 'distance_accuracy_value', 'NONE');
#288 = PERSON_AND_ORGANIZATION ( #220, #295 ) ;
#289 = CIRCLE ( 'NONE', #155, 16.19999999999999929 ) ;
#290 = DIRECTION ( 'NONE',  ( 1.000000000000000000, 0.000000000000000000, 0.000000000000000000 ) ) ;
#291 = CARTESIAN_POINT ( 'NONE',  ( 0.000000000000000000, 0.000000000000000000, 10.00000000000000000 ) ) ;
#292 = AXIS2_PLACEMENT_3D ( 'NONE', #142, #116, #290 ) ;
#293 = PERSON_AND_ORGANIZATION_ROLE ( 'classification_officer' ) ;
#294 = PRODUCT_DEFINITION ( 'NEZNÁMÝ', '', #58, #121 ) ;
#295 = ORGANIZATION ( 'NEURÈENÝ', 'NEURÈENÝ', '' ) ;
#296 = EDGE_LOOP ( 'NONE', ( #298, #259, #13, #62 ) ) ;
#297 = AXIS2_PLACEMENT_3D ( 'NONE', #148, #243, #5 ) ;
#298 = ORIENTED_EDGE ( 'NONE', *, *, #221, .F. ) ;
#299 = EDGE_CURVE ( 'NONE', #183, #159, #289, .T. ) ;
#300 = VERTEX_POINT ( 'NONE', #306 ) ;
#301 = ORIENTED_EDGE ( 'NONE', *, *, #172, .T. ) ;
#302 = SECURITY_CLASSIFICATION ( '', '', #252 ) ;
#303 = DIRECTION ( 'NONE',  ( 1.000000000000000000, 0.000000000000000000, 0.000000000000000000 ) ) ;
#304 = APPROVAL ( #77, 'NEURÈENÝ' ) ;
#305 = CARTESIAN_POINT ( 'NONE',  ( -16.19999999999999929, 1.983927814618711846E-15, 10.00000000000000000 ) ) ;
#306 = CARTESIAN_POINT ( 'NONE',  ( 16.00000000000000000, 1.959434878635765131E-15, 10.20000000000000107 ) ) ;
#307 = DIRECTION ( 'NONE',  ( -1.000000000000000000, 1.224646799147353947E-16, 0.000000000000000000 ) ) ;
ENDSEC;
END-ISO-10303-21;
