ISO-10303-21;
HEADER;
FILE_DESCRIPTION (( 'STEP AP203' ),
    '1' );
FILE_NAME ('1539.STEP',
    '2022-06-20T09:25:21',
    ( '' ),
    ( '' ),
    'SwSTEP 2.0',
    'SolidWorks 2019',
    '' );
FILE_SCHEMA (( 'CONFIG_CONTROL_DESIGN' ));
ENDSEC;

DATA;
#1 = ADVANCED_FACE ( 'NONE', ( #182 ), #17, .T. ) ;
#2 = CARTESIAN_POINT ( 'NONE',  ( 0.000000000000000000, 0.000000000000000000, 0.000000000000000000 ) ) ;
#3 = CIRCLE ( 'NONE', #179, 11.00000000000000000 ) ;
#4 = DIRECTION ( 'NONE',  ( 1.000000000000000000, 0.000000000000000000, 0.000000000000000000 ) ) ;
#5 = CARTESIAN_POINT ( 'NONE',  ( 7.000000000000000888, 8.572527594031474176E-16, 1006.999999999999886 ) ) ;
#6 = EDGE_CURVE ( 'NONE', #19, #214, #296, .T. ) ;
#7 = DIRECTION ( 'NONE',  ( 0.000000000000000000, 0.000000000000000000, 1.000000000000000000 ) ) ;
#8 = CIRCLE ( 'NONE', #207, 11.00000000000000000 ) ;
#9 = CARTESIAN_POINT ( 'NONE',  ( 11.00000000000000000, 1.347111479062088405E-15, 0.000000000000000000 ) ) ;
#10 = APPROVAL_ROLE ( '' ) ;
#11 = VERTEX_POINT ( 'NONE', #259 ) ;
#12 = EDGE_CURVE ( 'NONE', #93, #255, #183, .T. ) ;
#13 = ORIENTED_EDGE ( 'NONE', *, *, #135, .T. ) ;
#14 = DIRECTION ( 'NONE',  ( 1.000000000000000000, 0.000000000000000000, 0.000000000000000000 ) ) ;
#15 = APPROVAL_PERSON_ORGANIZATION ( #153, #76, #270 ) ;
#16 = ORIENTED_EDGE ( 'NONE', *, *, #244, .F. ) ;
#17 = PLANE ( 'NONE',  #305 ) ;
#18 = DESIGN_CONTEXT ( 'detailed design', #127, 'design' ) ;
#19 = VERTEX_POINT ( 'NONE', #192 ) ;
#20 = COORDINATED_UNIVERSAL_TIME_OFFSET ( 1, 0, .AHEAD. ) ;
#21 = CARTESIAN_POINT ( 'NONE',  ( 0.000000000000000000, 0.000000000000000000, 7.000000000000000000 ) ) ;
#22 = SECURITY_CLASSIFICATION_LEVEL ( 'unclassified' ) ;
#23 = DIRECTION ( 'NONE',  ( -0.000000000000000000, -0.000000000000000000, -1.000000000000000000 ) ) ;
#24 = CARTESIAN_POINT ( 'NONE',  ( 0.000000000000000000, 0.000000000000000000, 1006.999999999999886 ) ) ;
#25 = CYLINDRICAL_SURFACE ( 'NONE', #232, 11.00000000000000000 ) ;
#26 = AXIS2_PLACEMENT_3D ( 'NONE', #201, #52, #247 ) ;
#27 = ADVANCED_FACE ( 'NONE', ( #261, #96 ), #118, .T. ) ;
#28 = CARTESIAN_POINT ( 'NONE',  ( 0.000000000000000000, 0.000000000000000000, 7.000000000000000000 ) ) ;
#29 = CC_DESIGN_PERSON_AND_ORGANIZATION_ASSIGNMENT ( #181, #88, ( #178 ) ) ;
#30 = AXIS2_PLACEMENT_3D ( 'NONE', #251, #123, #177 ) ;
#31 = CARTESIAN_POINT ( 'NONE',  ( 0.000000000000000000, 0.000000000000000000, 0.000000000000000000 ) ) ;
#32 =( LENGTH_UNIT ( ) NAMED_UNIT ( * ) SI_UNIT ( .MILLI., .METRE. ) );
#33 = MANIFOLD_SOLID_BREP ( 'Zaoblit1', #277 ) ;
#34 = DIRECTION ( 'NONE',  ( -1.000000000000000000, 0.000000000000000000, 0.000000000000000000 ) ) ;
#35 =( NAMED_UNIT ( * ) SI_UNIT ( $, .STERADIAN. ) SOLID_ANGLE_UNIT ( ) );
#36 = APPROVAL_STATUS ( 'not_yet_approved' ) ;
#37 = CIRCLE ( 'NONE', #212, 11.00000000000000000 ) ;
#38 = EDGE_CURVE ( 'NONE', #11, #93, #78, .T. ) ;
#39 = ORIENTED_EDGE ( 'NONE', *, *, #124, .F. ) ;
#40 = DIRECTION ( 'NONE',  ( 1.000000000000000000, 0.000000000000000000, 0.000000000000000000 ) ) ;
#41 = ORIENTED_EDGE ( 'NONE', *, *, #135, .F. ) ;
#42 = EDGE_CURVE ( 'NONE', #19, #110, #37, .T. ) ;
#43 = COORDINATED_UNIVERSAL_TIME_OFFSET ( 1, 0, .AHEAD. ) ;
#44 = AXIS2_PLACEMENT_3D ( 'NONE', #28, #23, #120 ) ;
#45 = EDGE_LOOP ( 'NONE', ( #71, #208 ) ) ;
#46 = EDGE_LOOP ( 'NONE', ( #69, #91, #217, #41 ) ) ;
#47 = ORIENTED_EDGE ( 'NONE', *, *, #278, .F. ) ;
#48 = AXIS2_PLACEMENT_3D ( 'NONE', #50, #246, #99 ) ;
#49 = DIRECTION ( 'NONE',  ( 0.000000000000000000, 0.000000000000000000, 1.000000000000000000 ) ) ;
#50 = CARTESIAN_POINT ( 'NONE',  ( 0.000000000000000000, 0.000000000000000000, 0.000000000000000000 ) ) ;
#51 = EDGE_CURVE ( 'NONE', #255, #93, #293, .T. ) ;
#52 = DIRECTION ( 'NONE',  ( 1.224646799147353207E-16, 1.000000000000000000, -0.000000000000000000 ) ) ;
#53 = AXIS2_PLACEMENT_3D ( 'NONE', #195, #77, #265 ) ;
#54 = CC_DESIGN_APPROVAL ( #176, ( #219 ) ) ;
#55 = PRODUCT_RELATED_PRODUCT_CATEGORY ( 'detail', '', ( #178 ) ) ;
#56 = DIRECTION ( 'NONE',  ( -1.000000000000000000, 0.000000000000000000, 0.000000000000000000 ) ) ;
#57 = FACE_OUTER_BOUND ( 'NONE', #157, .T. ) ;
#58 = EDGE_CURVE ( 'NONE', #241, #189, #254, .T. ) ;
#59 = CYLINDRICAL_SURFACE ( 'NONE', #262, 7.000000000000000888 ) ;
#60 = AXIS2_PLACEMENT_3D ( 'NONE', #24, #225, #75 ) ;
#61 = CC_DESIGN_APPROVAL ( #76, ( #281 ) ) ;
#62 = APPROVAL_DATE_TIME ( #68, #76 ) ;
#63 = CC_DESIGN_DATE_AND_TIME_ASSIGNMENT ( #152, #236, ( #281 ) ) ;
#64 = APPLICATION_PROTOCOL_DEFINITION ( 'international standard', 'config_control_design', 1994, #127 ) ;
#65 = AXIS2_PLACEMENT_3D ( 'NONE', #171, #287, #304 ) ;
#66 = ORIENTED_EDGE ( 'NONE', *, *, #124, .T. ) ;
#67 = ADVANCED_FACE ( 'NONE', ( #282 ), #74, .F. ) ;
#68 = DATE_AND_TIME ( #184, #197 ) ;
#69 = ORIENTED_EDGE ( 'NONE', *, *, #42, .F. ) ;
#70 = CARTESIAN_POINT ( 'NONE',  ( 11.00000000000000000, 1.347111479062088405E-15, 7.000000000000000000 ) ) ;
#71 = ORIENTED_EDGE ( 'NONE', *, *, #221, .F. ) ;
#72 = EDGE_CURVE ( 'NONE', #292, #255, #168, .T. ) ;
#73 = CARTESIAN_POINT ( 'NONE',  ( 0.000000000000000000, 0.000000000000000000, 7.199999999999984190 ) ) ;
#74 = PLANE ( 'NONE',  #48 ) ;
#75 = DIRECTION ( 'NONE',  ( 1.000000000000000000, 0.000000000000000000, 0.000000000000000000 ) ) ;
#76 = APPROVAL ( #84, 'NEURÈENÝ' ) ;
#77 = DIRECTION ( 'NONE',  ( -0.000000000000000000, -0.000000000000000000, -1.000000000000000000 ) ) ;
#78 = LINE ( 'NONE', #226, #271 ) ;
#79 = LOCAL_TIME ( 11, 25, 21.00000000000000000, #155 ) ;
#80 = CC_DESIGN_PERSON_AND_ORGANIZATION_ASSIGNMENT ( #161, #193, ( #219 ) ) ;
#81 = DIRECTION ( 'NONE',  ( 1.000000000000000000, 0.000000000000000000, 0.000000000000000000 ) ) ;
#82 = CYLINDRICAL_SURFACE ( 'NONE', #204, 7.000000000000000888 ) ;
#83 = EDGE_LOOP ( 'NONE', ( #276, #128 ) ) ;
#84 = APPROVAL_STATUS ( 'not_yet_approved' ) ;
#85 = CIRCLE ( 'NONE', #112, 11.00000000000000000 ) ;
#86 = EDGE_CURVE ( 'NONE', #93, #241, #229, .T. ) ;
#87 = ORIENTED_EDGE ( 'NONE', *, *, #244, .T. ) ;
#88 = PERSON_AND_ORGANIZATION_ROLE ( 'design_owner' ) ;
#89 = ORIENTED_EDGE ( 'NONE', *, *, #86, .T. ) ;
#90 = ADVANCED_BREP_SHAPE_REPRESENTATION ( '1539', ( #33, #298 ), #283 ) ;
#91 = ORIENTED_EDGE ( 'NONE', *, *, #6, .T. ) ;
#92 = SHAPE_DEFINITION_REPRESENTATION ( #169, #90 ) ;
#93 = VERTEX_POINT ( 'NONE', #203 ) ;
#94 = DIRECTION ( 'NONE',  ( -1.000000000000000000, 0.000000000000000000, 0.000000000000000000 ) ) ;
#95 = CALENDAR_DATE ( 2022, 20, 6 ) ;
#96 = FACE_OUTER_BOUND ( 'NONE', #83, .T. ) ;
#97 = CARTESIAN_POINT ( 'NONE',  ( 0.000000000000000000, 0.000000000000000000, 7.000000000000000000 ) ) ;
#98 = APPROVAL_PERSON_ORGANIZATION ( #257, #202, #10 ) ;
#99 = DIRECTION ( 'NONE',  ( 1.000000000000000000, 0.000000000000000000, -0.000000000000000000 ) ) ;
#100 = CARTESIAN_POINT ( 'NONE',  ( -11.00000000000000000, 0.000000000000000000, 7.000000000000000000 ) ) ;
#101 = DIRECTION ( 'NONE',  ( 0.000000000000000000, 0.000000000000000000, 1.000000000000000000 ) ) ;
#102 = FACE_OUTER_BOUND ( 'NONE', #154, .T. ) ;
#103 = TOROIDAL_SURFACE ( 'NONE', #190, 7.200000000000001066, 0.2000000000000000111 ) ;
#104 = ADVANCED_FACE ( 'NONE', ( #307 ), #25, .T. ) ;
#105 = AXIS2_PLACEMENT_3D ( 'NONE', #223, #222, #285 ) ;
#106 = EDGE_LOOP ( 'NONE', ( #162, #159, #13, #295 ) ) ;
#107 = ORIENTED_EDGE ( 'NONE', *, *, #58, .F. ) ;
#108 = AXIS2_PLACEMENT_3D ( 'NONE', #21, #114, #306 ) ;
#109 = ORIENTED_EDGE ( 'NONE', *, *, #51, .T. ) ;
#110 = VERTEX_POINT ( 'NONE', #300 ) ;
#111 = ORIENTED_EDGE ( 'NONE', *, *, #72, .F. ) ;
#112 = AXIS2_PLACEMENT_3D ( 'NONE', #31, #7, #121 ) ;
#113 = LOCAL_TIME ( 11, 25, 21.00000000000000000, #20 ) ;
#114 = DIRECTION ( 'NONE',  ( 0.000000000000000000, 0.000000000000000000, 1.000000000000000000 ) ) ;
#115 = PERSON_AND_ORGANIZATION_ROLE ( 'creator' ) ;
#116 = CARTESIAN_POINT ( 'NONE',  ( 0.000000000000000000, 0.000000000000000000, 7.000000000000000000 ) ) ;
#117 = FACE_OUTER_BOUND ( 'NONE', #215, .T. ) ;
#118 = PLANE ( 'NONE',  #108 ) ;
#119 = CIRCLE ( 'NONE', #105, 0.1999999999999996503 ) ;
#120 = DIRECTION ( 'NONE',  ( -1.000000000000000000, 0.000000000000000000, 0.000000000000000000 ) ) ;
#121 = DIRECTION ( 'NONE',  ( 1.000000000000000000, 0.000000000000000000, 0.000000000000000000 ) ) ;
#122 = AXIS2_PLACEMENT_3D ( 'NONE', #209, #156, #14 ) ;
#123 = DIRECTION ( 'NONE',  ( -0.000000000000000000, -0.000000000000000000, -1.000000000000000000 ) ) ;
#124 = EDGE_CURVE ( 'NONE', #255, #189, #119, .T. ) ;
#125 = CARTESIAN_POINT ( 'NONE',  ( -7.200000000000001066, 8.817456953860944275E-16, 6.999999999999992006 ) ) ;
#126 = CARTESIAN_POINT ( 'NONE',  ( -11.00000000000000000, 0.000000000000000000, 0.000000000000000000 ) ) ;
#127 = APPLICATION_CONTEXT ( 'configuration controlled 3d designs of mechanical parts and assemblies' ) ;
#128 = ORIENTED_EDGE ( 'NONE', *, *, #42, .T. ) ;
#129 = CALENDAR_DATE ( 2022, 20, 6 ) ;
#130 = ORIENTED_EDGE ( 'NONE', *, *, #86, .F. ) ;
#131 = CC_DESIGN_APPROVAL ( #202, ( #196 ) ) ;
#132 = DATE_AND_TIME ( #291, #268 ) ;
#133 = DIRECTION ( 'NONE',  ( 0.000000000000000000, 0.000000000000000000, 1.000000000000000000 ) ) ;
#134 = UNCERTAINTY_MEASURE_WITH_UNIT (LENGTH_MEASURE( 1.000000000000000082E-05 ), #32, 'distance_accuracy_value', 'NONE');
#135 = EDGE_CURVE ( 'NONE', #110, #234, #199, .T. ) ;
#136 = ORIENTED_EDGE ( 'NONE', *, *, #12, .T. ) ;
#137 = APPROVAL_STATUS ( 'not_yet_approved' ) ;
#138 = CARTESIAN_POINT ( 'NONE',  ( 7.200000000000001066, 0.000000000000000000, 6.999999999999992006 ) ) ;
#139 = PERSON_AND_ORGANIZATION_ROLE ( 'design_supplier' ) ;
#140 = TOROIDAL_SURFACE ( 'NONE', #175, 7.200000000000001066, 0.2000000000000000111 ) ;
#141 = CARTESIAN_POINT ( 'NONE',  ( 0.000000000000000000, 0.000000000000000000, 7.199999999999984190 ) ) ;
#142 = EDGE_CURVE ( 'NONE', #11, #292, #238, .T. ) ;
#143 = DIRECTION ( 'NONE',  ( -0.000000000000000000, -0.000000000000000000, -1.000000000000000000 ) ) ;
#144 = DIRECTION ( 'NONE',  ( 0.000000000000000000, 0.000000000000000000, 1.000000000000000000 ) ) ;
#145 = FACE_OUTER_BOUND ( 'NONE', #106, .T. ) ;
#146 = EDGE_CURVE ( 'NONE', #110, #19, #3, .T. ) ;
#147 = DIRECTION ( 'NONE',  ( 0.000000000000000000, 0.000000000000000000, 1.000000000000000000 ) ) ;
#148 = CARTESIAN_POINT ( 'NONE',  ( 0.000000000000000000, 0.000000000000000000, 1006.999999999999886 ) ) ;
#149 = ORGANIZATION ( 'NEURÈENÝ', 'NEURÈENÝ', '' ) ;
#150 = CARTESIAN_POINT ( 'NONE',  ( 0.000000000000000000, 0.000000000000000000, 7.199999999999984190 ) ) ;
#151 = CARTESIAN_POINT ( 'NONE',  ( 0.000000000000000000, 0.000000000000000000, 0.000000000000000000 ) ) ;
#152 = DATE_AND_TIME ( #129, #79 ) ;
#153 = PERSON_AND_ORGANIZATION ( #191, #149 ) ;
#154 = EDGE_LOOP ( 'NONE', ( #16, #274, #109, #258 ) ) ;
#155 = COORDINATED_UNIVERSAL_TIME_OFFSET ( 1, 0, .AHEAD. ) ;
#156 = DIRECTION ( 'NONE',  ( 0.000000000000000000, 0.000000000000000000, 1.000000000000000000 ) ) ;
#157 = EDGE_LOOP ( 'NONE', ( #130, #260, #66, #107 ) ) ;
#158 = PERSON_AND_ORGANIZATION_ROLE ( 'creator' ) ;
#159 = ORIENTED_EDGE ( 'NONE', *, *, #146, .F. ) ;
#160 = DIRECTION ( 'NONE',  ( -0.000000000000000000, -0.000000000000000000, -1.000000000000000000 ) ) ;
#161 = PERSON_AND_ORGANIZATION ( #191, #149 ) ;
#162 = ORIENTED_EDGE ( 'NONE', *, *, #6, .F. ) ;
#163 = ADVANCED_FACE ( 'NONE', ( #117 ), #140, .F. ) ;
#164 = DIRECTION ( 'NONE',  ( 0.000000000000000000, 0.000000000000000000, 1.000000000000000000 ) ) ;
#165 = PERSON_AND_ORGANIZATION ( #191, #149 ) ;
#166 = CIRCLE ( 'NONE', #30, 7.200000000000001066 ) ;
#167 = LOCAL_TIME ( 11, 25, 21.00000000000000000, #218 ) ;
#168 = LINE ( 'NONE', #263, #252 ) ;
#169 = PRODUCT_DEFINITION_SHAPE ( 'NONE', 'NONE',  #281 ) ;
#170 = DATE_AND_TIME ( #95, #167 ) ;
#171 = CARTESIAN_POINT ( 'NONE',  ( 0.000000000000000000, 0.000000000000000000, 7.199999999999984190 ) ) ;
#172 = DIRECTION ( 'NONE',  ( 1.000000000000000000, 0.000000000000000000, 0.000000000000000000 ) ) ;
#173 = CC_DESIGN_PERSON_AND_ORGANIZATION_ASSIGNMENT ( #165, #115, ( #196 ) ) ;
#174 = DIRECTION ( 'NONE',  ( -0.000000000000000000, -0.000000000000000000, -1.000000000000000000 ) ) ;
#175 = AXIS2_PLACEMENT_3D ( 'NONE', #141, #144, #172 ) ;
#176 = APPROVAL ( #137, 'NEURÈENÝ' ) ;
#177 = DIRECTION ( 'NONE',  ( 1.000000000000000000, 0.000000000000000000, 0.000000000000000000 ) ) ;
#178 = PRODUCT ( '1539', '1539', '', ( #213 ) ) ;
#179 = AXIS2_PLACEMENT_3D ( 'NONE', #284, #164, #264 ) ;
#180 =( NAMED_UNIT ( * ) PLANE_ANGLE_UNIT ( ) SI_UNIT ( $, .RADIAN. ) );
#181 = PERSON_AND_ORGANIZATION ( #191, #149 ) ;
#182 = FACE_OUTER_BOUND ( 'NONE', #187, .T. ) ;
#183 = CIRCLE ( 'NONE', #65, 7.000000000000000888 ) ;
#184 = CALENDAR_DATE ( 2022, 20, 6 ) ;
#185 = EDGE_LOOP ( 'NONE', ( #233, #211 ) ) ;
#186 = COORDINATED_UNIVERSAL_TIME_OFFSET ( 1, 0, .AHEAD. ) ;
#187 = EDGE_LOOP ( 'NONE', ( #294, #87 ) ) ;
#188 = ADVANCED_FACE ( 'NONE', ( #145 ), #250, .T. ) ;
#189 = VERTEX_POINT ( 'NONE', #138 ) ;
#190 = AXIS2_PLACEMENT_3D ( 'NONE', #150, #227, #81 ) ;
#191 = PERSON ( 'NEURÈENÝ', 'NEURÈENÝ', 'NEURÈENÝ', ('NEURÈENÝ'), ('NEURÈENÝ'), ('NEURÈENÝ') ) ;
#192 = CARTESIAN_POINT ( 'NONE',  ( 11.00000000000000000, 1.347111479062088405E-15, 7.000000000000000000 ) ) ;
#193 = PERSON_AND_ORGANIZATION_ROLE ( 'classification_officer' ) ;
#194 = CC_DESIGN_PERSON_AND_ORGANIZATION_ASSIGNMENT ( #200, #139, ( #196 ) ) ;
#195 = CARTESIAN_POINT ( 'NONE',  ( 0.000000000000000000, 0.000000000000000000, 7.000000000000000000 ) ) ;
#196 = PRODUCT_DEFINITION_FORMATION_WITH_SPECIFIED_SOURCE ( 'LIBOVOLNÝ', '', #178, .NOT_KNOWN. ) ;
#197 = LOCAL_TIME ( 11, 25, 21.00000000000000000, #186 ) ;
#198 = CC_DESIGN_SECURITY_CLASSIFICATION ( #219, ( #196 ) ) ;
#199 = LINE ( 'NONE', #100, #245 ) ;
#200 = PERSON_AND_ORGANIZATION ( #191, #149 ) ;
#201 = CARTESIAN_POINT ( 'NONE',  ( -7.200000000000001066, 8.817456953860944275E-16, 7.199999999999984190 ) ) ;
#202 = APPROVAL ( #36, 'NEURÈENÝ' ) ;
#203 = CARTESIAN_POINT ( 'NONE',  ( -7.000000000000000888, 0.000000000000000000, 7.199999999999984190 ) ) ;
#204 = AXIS2_PLACEMENT_3D ( 'NONE', #230, #269, #56 ) ;
#205 = ADVANCED_FACE ( 'NONE', ( #243 ), #82, .T. ) ;
#206 = DIRECTION ( 'NONE',  ( -0.000000000000000000, -0.000000000000000000, -1.000000000000000000 ) ) ;
#207 = AXIS2_PLACEMENT_3D ( 'NONE', #151, #147, #4 ) ;
#208 = ORIENTED_EDGE ( 'NONE', *, *, #228, .F. ) ;
#209 = CARTESIAN_POINT ( 'NONE',  ( 0.000000000000000000, 0.000000000000000000, 1006.999999999999886 ) ) ;
#210 = APPLICATION_CONTEXT ( 'configuration controlled 3d designs of mechanical parts and assemblies' ) ;
#211 = ORIENTED_EDGE ( 'NONE', *, *, #58, .T. ) ;
#212 = AXIS2_PLACEMENT_3D ( 'NONE', #116, #49, #280 ) ;
#213 = MECHANICAL_CONTEXT ( 'NONE', #210, 'mechanical' ) ;
#214 = VERTEX_POINT ( 'NONE', #9 ) ;
#215 = EDGE_LOOP ( 'NONE', ( #272, #89, #47, #39 ) ) ;
#216 = APPROVAL_ROLE ( '' ) ;
#217 = ORIENTED_EDGE ( 'NONE', *, *, #228, .T. ) ;
#218 = COORDINATED_UNIVERSAL_TIME_OFFSET ( 1, 0, .AHEAD. ) ;
#219 = SECURITY_CLASSIFICATION ( '', '', #22 ) ;
#220 = DIRECTION ( 'NONE',  ( 0.000000000000000000, 0.000000000000000000, 1.000000000000000000 ) ) ;
#221 = EDGE_CURVE ( 'NONE', #234, #214, #85, .T. ) ;
#222 = DIRECTION ( 'NONE',  ( 0.000000000000000000, -1.000000000000000000, 0.000000000000000000 ) ) ;
#223 = CARTESIAN_POINT ( 'NONE',  ( 7.200000000000001066, 0.000000000000000000, 7.199999999999984190 ) ) ;
#224 = DATE_TIME_ROLE ( 'classification_date' ) ;
#225 = DIRECTION ( 'NONE',  ( 0.000000000000000000, 0.000000000000000000, 1.000000000000000000 ) ) ;
#226 = CARTESIAN_POINT ( 'NONE',  ( -7.000000000000000888, 0.000000000000000000, 1006.999999999999886 ) ) ;
#227 = DIRECTION ( 'NONE',  ( 0.000000000000000000, 0.000000000000000000, 1.000000000000000000 ) ) ;
#228 = EDGE_CURVE ( 'NONE', #214, #234, #8, .T. ) ;
#229 = CIRCLE ( 'NONE', #26, 0.1999999999999996503 ) ;
#230 = CARTESIAN_POINT ( 'NONE',  ( 0.000000000000000000, 0.000000000000000000, 1006.999999999999886 ) ) ;
#231 = ADVANCED_FACE ( 'NONE', ( #57 ), #103, .F. ) ;
#232 = AXIS2_PLACEMENT_3D ( 'NONE', #97, #267, #94 ) ;
#233 = ORIENTED_EDGE ( 'NONE', *, *, #278, .T. ) ;
#234 = VERTEX_POINT ( 'NONE', #126 ) ;
#235 = ADVANCED_FACE ( 'NONE', ( #102 ), #59, .T. ) ;
#236 = DATE_TIME_ROLE ( 'creation_date' ) ;
#237 = ORIENTED_EDGE ( 'NONE', *, *, #142, .F. ) ;
#238 = CIRCLE ( 'NONE', #60, 7.000000000000000888 ) ;
#239 = APPROVAL_DATE_TIME ( #132, #202 ) ;
#240 = DIRECTION ( 'NONE',  ( 1.000000000000000000, 0.000000000000000000, -0.000000000000000000 ) ) ;
#241 = VERTEX_POINT ( 'NONE', #125 ) ;
#242 = CARTESIAN_POINT ( 'NONE',  ( 7.000000000000000888, 8.572527594031474176E-16, 7.199999999999984190 ) ) ;
#243 = FACE_OUTER_BOUND ( 'NONE', #256, .T. ) ;
#244 = EDGE_CURVE ( 'NONE', #292, #11, #289, .T. ) ;
#245 = VECTOR ( 'NONE', #301, 1000.000000000000000 ) ;
#246 = DIRECTION ( 'NONE',  ( 0.000000000000000000, 0.000000000000000000, 1.000000000000000000 ) ) ;
#247 = DIRECTION ( 'NONE',  ( -1.000000000000000000, 1.224646799147358384E-16, 0.000000000000000000 ) ) ;
#248 = APPROVAL_DATE_TIME ( #297, #176 ) ;
#249 = DIRECTION ( 'NONE',  ( 1.000000000000000000, 0.000000000000000000, 0.000000000000000000 ) ) ;
#250 = CYLINDRICAL_SURFACE ( 'NONE', #44, 11.00000000000000000 ) ;
#251 = CARTESIAN_POINT ( 'NONE',  ( 0.000000000000000000, 0.000000000000000000, 7.000000000000000000 ) ) ;
#252 = VECTOR ( 'NONE', #174, 1000.000000000000000 ) ;
#253 = CC_DESIGN_PERSON_AND_ORGANIZATION_ASSIGNMENT ( #273, #158, ( #281 ) ) ;
#254 = CIRCLE ( 'NONE', #53, 7.200000000000001066 ) ;
#255 = VERTEX_POINT ( 'NONE', #242 ) ;
#256 = EDGE_LOOP ( 'NONE', ( #111, #237, #279, #136 ) ) ;
#257 = PERSON_AND_ORGANIZATION ( #191, #149 ) ;
#258 = ORIENTED_EDGE ( 'NONE', *, *, #38, .F. ) ;
#259 = CARTESIAN_POINT ( 'NONE',  ( -7.000000000000000888, 0.000000000000000000, 1006.999999999999886 ) ) ;
#260 = ORIENTED_EDGE ( 'NONE', *, *, #51, .F. ) ;
#261 = FACE_BOUND ( 'NONE', #185, .T. ) ;
#262 = AXIS2_PLACEMENT_3D ( 'NONE', #148, #206, #34 ) ;
#263 = CARTESIAN_POINT ( 'NONE',  ( 7.000000000000000888, 8.572527594031474176E-16, 1006.999999999999886 ) ) ;
#264 = DIRECTION ( 'NONE',  ( 1.000000000000000000, 0.000000000000000000, 0.000000000000000000 ) ) ;
#265 = DIRECTION ( 'NONE',  ( 1.000000000000000000, 0.000000000000000000, 0.000000000000000000 ) ) ;
#266 = VECTOR ( 'NONE', #160, 1000.000000000000000 ) ;
#267 = DIRECTION ( 'NONE',  ( -0.000000000000000000, -0.000000000000000000, -1.000000000000000000 ) ) ;
#268 = LOCAL_TIME ( 11, 25, 21.00000000000000000, #43 ) ;
#269 = DIRECTION ( 'NONE',  ( -0.000000000000000000, -0.000000000000000000, -1.000000000000000000 ) ) ;
#270 = APPROVAL_ROLE ( '' ) ;
#271 = VECTOR ( 'NONE', #143, 1000.000000000000000 ) ;
#272 = ORIENTED_EDGE ( 'NONE', *, *, #12, .F. ) ;
#273 = PERSON_AND_ORGANIZATION ( #191, #149 ) ;
#274 = ORIENTED_EDGE ( 'NONE', *, *, #72, .T. ) ;
#275 = CARTESIAN_POINT ( 'NONE',  ( 0.000000000000000000, 0.000000000000000000, 1006.999999999999886 ) ) ;
#276 = ORIENTED_EDGE ( 'NONE', *, *, #146, .T. ) ;
#277 = CLOSED_SHELL ( 'NONE', ( #163, #235, #104, #188, #27, #67, #205, #1, #231 ) ) ;
#278 = EDGE_CURVE ( 'NONE', #189, #241, #166, .T. ) ;
#279 = ORIENTED_EDGE ( 'NONE', *, *, #38, .T. ) ;
#280 = DIRECTION ( 'NONE',  ( 1.000000000000000000, 0.000000000000000000, 0.000000000000000000 ) ) ;
#281 = PRODUCT_DEFINITION ( 'NEZNÁMÝ', '', #196, #18 ) ;
#282 = FACE_OUTER_BOUND ( 'NONE', #45, .T. ) ;
#283 =( GEOMETRIC_REPRESENTATION_CONTEXT ( 3 ) GLOBAL_UNCERTAINTY_ASSIGNED_CONTEXT ( ( #134 ) ) GLOBAL_UNIT_ASSIGNED_CONTEXT ( ( #32, #180, #35 ) ) REPRESENTATION_CONTEXT ( 'NONE', 'WORKASPACE' ) );
#284 = CARTESIAN_POINT ( 'NONE',  ( 0.000000000000000000, 0.000000000000000000, 7.000000000000000000 ) ) ;
#285 = DIRECTION ( 'NONE',  ( 0.000000000000000000, 0.000000000000000000, -1.000000000000000000 ) ) ;
#286 = APPLICATION_PROTOCOL_DEFINITION ( 'international standard', 'config_control_design', 1994, #210 ) ;
#287 = DIRECTION ( 'NONE',  ( 0.000000000000000000, 0.000000000000000000, 1.000000000000000000 ) ) ;
#288 = AXIS2_PLACEMENT_3D ( 'NONE', #73, #220, #249 ) ;
#289 = CIRCLE ( 'NONE', #122, 7.000000000000000888 ) ;
#290 = APPROVAL_PERSON_ORGANIZATION ( #299, #176, #216 ) ;
#291 = CALENDAR_DATE ( 2022, 20, 6 ) ;
#292 = VERTEX_POINT ( 'NONE', #5 ) ;
#293 = CIRCLE ( 'NONE', #288, 7.000000000000000888 ) ;
#294 = ORIENTED_EDGE ( 'NONE', *, *, #142, .T. ) ;
#295 = ORIENTED_EDGE ( 'NONE', *, *, #221, .T. ) ;
#296 = LINE ( 'NONE', #70, #266 ) ;
#297 = DATE_AND_TIME ( #302, #113 ) ;
#298 = AXIS2_PLACEMENT_3D ( 'NONE', #2, #101, #40 ) ;
#299 = PERSON_AND_ORGANIZATION ( #191, #149 ) ;
#300 = CARTESIAN_POINT ( 'NONE',  ( -11.00000000000000000, 0.000000000000000000, 7.000000000000000000 ) ) ;
#301 = DIRECTION ( 'NONE',  ( -0.000000000000000000, -0.000000000000000000, -1.000000000000000000 ) ) ;
#302 = CALENDAR_DATE ( 2022, 20, 6 ) ;
#303 = CC_DESIGN_DATE_AND_TIME_ASSIGNMENT ( #170, #224, ( #219 ) ) ;
#304 = DIRECTION ( 'NONE',  ( 1.000000000000000000, 0.000000000000000000, 0.000000000000000000 ) ) ;
#305 = AXIS2_PLACEMENT_3D ( 'NONE', #275, #133, #240 ) ;
#306 = DIRECTION ( 'NONE',  ( 1.000000000000000000, 0.000000000000000000, -0.000000000000000000 ) ) ;
#307 = FACE_OUTER_BOUND ( 'NONE', #46, .T. ) ;
ENDSEC;
END-ISO-10303-21;
