ISO-10303-21;
HEADER;
FILE_DESCRIPTION (( 'STEP AP203' ),
    '1' );
FILE_NAME ('eed3.STEP',
    '2022-06-20T10:17:29',
    ( '' ),
    ( '' ),
    'SwSTEP 2.0',
    'SolidWorks 2019',
    '' );
FILE_SCHEMA (( 'CONFIG_CONTROL_DESIGN' ));
ENDSEC;

DATA;
#1 = DIRECTION ( 'NONE',  ( 1.000000000000000000, 0.000000000000000000, 0.000000000000000000 ) ) ;
#2 = DIRECTION ( 'NONE',  ( 0.000000000000000000, 0.000000000000000000, 1.000000000000000000 ) ) ;
#3 = PERSON_AND_ORGANIZATION ( #298, #225 ) ;
#4 = AXIS2_PLACEMENT_3D ( 'NONE', #126, #40, #11 ) ;
#5 = CALENDAR_DATE ( 2022, 20, 6 ) ;
#6 = CALENDAR_DATE ( 2022, 20, 6 ) ;
#7 = MANIFOLD_SOLID_BREP ( 'Zaoblit1', #66 ) ;
#8 = ORIENTED_EDGE ( 'NONE', *, *, #56, .T. ) ;
#9 = AXIS2_PLACEMENT_3D ( 'NONE', #232, #18, #258 ) ;
#10 = CC_DESIGN_APPROVAL ( #54, ( #292 ) ) ;
#11 = DIRECTION ( 'NONE',  ( 1.000000000000000000, 0.000000000000000000, 0.000000000000000000 ) ) ;
#12 = CARTESIAN_POINT ( 'NONE',  ( 0.000000000000000000, 0.000000000000000000, 317.0000000000000000 ) ) ;
#13 = ORIENTED_EDGE ( 'NONE', *, *, #181, .T. ) ;
#14 = VERTEX_POINT ( 'NONE', #203 ) ;
#15 = DIRECTION ( 'NONE',  ( 0.000000000000000000, 0.000000000000000000, 1.000000000000000000 ) ) ;
#16 = PRODUCT_DEFINITION_SHAPE ( 'NONE', 'NONE',  #148 ) ;
#17 = ORIENTED_EDGE ( 'NONE', *, *, #218, .F. ) ;
#18 = DIRECTION ( 'NONE',  ( -0.000000000000000000, -0.000000000000000000, -1.000000000000000000 ) ) ;
#19 = ORIENTED_EDGE ( 'NONE', *, *, #245, .F. ) ;
#20 = CARTESIAN_POINT ( 'NONE',  ( -2.500000000000000000, 0.000000000000000000, 2.000000000000000000 ) ) ;
#21 = FACE_OUTER_BOUND ( 'NONE', #231, .T. ) ;
#22 = AXIS2_PLACEMENT_3D ( 'NONE', #48, #237, #304 ) ;
#23 = DIRECTION ( 'NONE',  ( 0.000000000000000000, 0.000000000000000000, 1.000000000000000000 ) ) ;
#24 = DIRECTION ( 'NONE',  ( -1.000000000000000000, 1.224646799147353207E-16, 0.000000000000000000 ) ) ;
#25 = CALENDAR_DATE ( 2022, 20, 6 ) ;
#26 = CC_DESIGN_PERSON_AND_ORGANIZATION_ASSIGNMENT ( #32, #267, ( #292 ) ) ;
#27 = VECTOR ( 'NONE', #296, 1000.000000000000000 ) ;
#28 = PERSON_AND_ORGANIZATION ( #298, #225 ) ;
#29 = ADVANCED_FACE ( 'NONE', ( #274 ), #149, .T. ) ;
#30 = PERSON_AND_ORGANIZATION_ROLE ( 'design_owner' ) ;
#31 = CIRCLE ( 'NONE', #73, 1.450000000000000178 ) ;
#32 = PERSON_AND_ORGANIZATION ( #298, #225 ) ;
#33 = EDGE_CURVE ( 'NONE', #85, #180, #247, .T. ) ;
#34 = LINE ( 'NONE', #129, #127 ) ;
#35 = LINE ( 'NONE', #226, #27 ) ;
#36 = CIRCLE ( 'NONE', #151, 1.450000000000000178 ) ;
#37 = FACE_OUTER_BOUND ( 'NONE', #179, .T. ) ;
#38 = CARTESIAN_POINT ( 'NONE',  ( 0.000000000000000000, 0.000000000000000000, 2.199999999999979750 ) ) ;
#39 = EDGE_LOOP ( 'NONE', ( #184, #88, #275, #273 ) ) ;
#40 = DIRECTION ( 'NONE',  ( 0.000000000000000000, 0.000000000000000000, 1.000000000000000000 ) ) ;
#41 = AXIS2_PLACEMENT_3D ( 'NONE', #246, #15, #248 ) ;
#42 = ORIENTED_EDGE ( 'NONE', *, *, #210, .F. ) ;
#43 = CARTESIAN_POINT ( 'NONE',  ( 0.000000000000000000, 0.000000000000000000, 0.000000000000000000 ) ) ;
#44 = EDGE_LOOP ( 'NONE', ( #277, #253 ) ) ;
#45 = DIRECTION ( 'NONE',  ( 0.000000000000000000, 0.000000000000000000, 1.000000000000000000 ) ) ;
#46 = EDGE_CURVE ( 'NONE', #233, #303, #294, .T. ) ;
#47 = TOROIDAL_SURFACE ( 'NONE', #219, 1.450000000000000178, 0.2000000000000000111 ) ;
#48 = CARTESIAN_POINT ( 'NONE',  ( 0.000000000000000000, 0.000000000000000000, 317.0000000000000000 ) ) ;
#49 = CIRCLE ( 'NONE', #163, 0.2000000000000000944 ) ;
#50 = CARTESIAN_POINT ( 'NONE',  ( 0.000000000000000000, 0.000000000000000000, 2.000000000000000000 ) ) ;
#51 = PERSON_AND_ORGANIZATION_ROLE ( 'creator' ) ;
#52 = EDGE_CURVE ( 'NONE', #270, #114, #143, .T. ) ;
#53 = CIRCLE ( 'NONE', #4, 2.500000000000000000 ) ;
#54 = APPROVAL ( #77, 'NEURÈENÝ' ) ;
#55 = AXIS2_PLACEMENT_3D ( 'NONE', #43, #23, #234 ) ;
#56 = EDGE_CURVE ( 'NONE', #205, #14, #53, .T. ) ;
#57 = EDGE_CURVE ( 'NONE', #85, #270, #34, .T. ) ;
#58 = DIRECTION ( 'NONE',  ( -0.000000000000000000, -0.000000000000000000, -1.000000000000000000 ) ) ;
#59 = DIRECTION ( 'NONE',  ( 1.000000000000000000, 0.000000000000000000, -0.000000000000000000 ) ) ;
#60 = DIRECTION ( 'NONE',  ( -0.000000000000000000, -0.000000000000000000, -1.000000000000000000 ) ) ;
#61 = EDGE_CURVE ( 'NONE', #131, #159, #36, .T. ) ;
#62 = CARTESIAN_POINT ( 'NONE',  ( 0.000000000000000000, 0.000000000000000000, 2.000000000000000000 ) ) ;
#63 = PRODUCT ( 'eed3', 'eed3', '', ( #98 ) ) ;
#64 = ORIENTED_EDGE ( 'NONE', *, *, #57, .T. ) ;
#65 = DIRECTION ( 'NONE',  ( 0.000000000000000000, 0.000000000000000000, -1.000000000000000000 ) ) ;
#66 = CLOSED_SHELL ( 'NONE', ( #118, #262, #222, #29, #70, #175, #121, #227, #97 ) ) ;
#67 = EDGE_LOOP ( 'NONE', ( #87, #255, #152, #42 ) ) ;
#68 = AXIS2_PLACEMENT_3D ( 'NONE', #135, #45, #119 ) ;
#69 = CARTESIAN_POINT ( 'NONE',  ( 0.000000000000000000, 0.000000000000000000, 317.0000000000000000 ) ) ;
#70 = ADVANCED_FACE ( 'NONE', ( #130, #230 ), #128, .T. ) ;
#71 =( LENGTH_UNIT ( ) NAMED_UNIT ( * ) SI_UNIT ( .MILLI., .METRE. ) );
#72 = CARTESIAN_POINT ( 'NONE',  ( -1.450000000000000178, 1.775737858763662409E-16, 1.999999999999989564 ) ) ;
#73 = AXIS2_PLACEMENT_3D ( 'NONE', #235, #190, #186 ) ;
#74 = CC_DESIGN_DATE_AND_TIME_ASSIGNMENT ( #124, #242, ( #292 ) ) ;
#75 = APPROVAL_STATUS ( 'not_yet_approved' ) ;
#76 = COORDINATED_UNIVERSAL_TIME_OFFSET ( 1, 0, .AHEAD. ) ;
#77 = APPROVAL_STATUS ( 'not_yet_approved' ) ;
#78 = COORDINATED_UNIVERSAL_TIME_OFFSET ( 1, 0, .AHEAD. ) ;
#79 = PRODUCT_RELATED_PRODUCT_CATEGORY ( 'detail', '', ( #63 ) ) ;
#80 = COORDINATED_UNIVERSAL_TIME_OFFSET ( 1, 0, .AHEAD. ) ;
#81 = ORIENTED_EDGE ( 'NONE', *, *, #125, .F. ) ;
#82 = CC_DESIGN_PERSON_AND_ORGANIZATION_ASSIGNMENT ( #28, #30, ( #63 ) ) ;
#83 = LINE ( 'NONE', #174, #86 ) ;
#84 = FACE_OUTER_BOUND ( 'NONE', #39, .T. ) ;
#85 = VERTEX_POINT ( 'NONE', #110 ) ;
#86 = VECTOR ( 'NONE', #271, 1000.000000000000000 ) ;
#87 = ORIENTED_EDGE ( 'NONE', *, *, #251, .F. ) ;
#88 = ORIENTED_EDGE ( 'NONE', *, *, #282, .F. ) ;
#89 = CARTESIAN_POINT ( 'NONE',  ( 0.000000000000000000, 0.000000000000000000, 2.199999999999979750 ) ) ;
#90 = ORIENTED_EDGE ( 'NONE', *, *, #46, .F. ) ;
#91 = CARTESIAN_POINT ( 'NONE',  ( 2.500000000000000000, 3.061616997868383141E-16, 2.000000000000000000 ) ) ;
#92 = CC_DESIGN_PERSON_AND_ORGANIZATION_ASSIGNMENT ( #101, #51, ( #148 ) ) ;
#93 = DIRECTION ( 'NONE',  ( 0.000000000000000000, -1.000000000000000000, 0.000000000000000000 ) ) ;
#94 = CARTESIAN_POINT ( 'NONE',  ( -1.450000000000000178, 1.775737858763662163E-16, 2.199999999999979750 ) ) ;
#95 = CYLINDRICAL_SURFACE ( 'NONE', #9, 1.250000000000000000 ) ;
#96 = PERSON_AND_ORGANIZATION ( #298, #225 ) ;
#97 = ADVANCED_FACE ( 'NONE', ( #302 ), #47, .F. ) ;
#98 = MECHANICAL_CONTEXT ( 'NONE', #288, 'mechanical' ) ;
#99 = PERSON_AND_ORGANIZATION_ROLE ( 'design_supplier' ) ;
#100 = APPROVAL_DATE_TIME ( #243, #216 ) ;
#101 = PERSON_AND_ORGANIZATION ( #298, #225 ) ;
#102 = DIRECTION ( 'NONE',  ( 0.000000000000000000, 0.000000000000000000, 1.000000000000000000 ) ) ;
#103 = CIRCLE ( 'NONE', #153, 2.500000000000000000 ) ;
#104 = DIRECTION ( 'NONE',  ( 0.000000000000000000, 0.000000000000000000, 1.000000000000000000 ) ) ;
#105 = EDGE_LOOP ( 'NONE', ( #156, #297, #133, #295 ) ) ;
#106 = CC_DESIGN_PERSON_AND_ORGANIZATION_ASSIGNMENT ( #172, #99, ( #201 ) ) ;
#107 = DIRECTION ( 'NONE',  ( 0.000000000000000000, 0.000000000000000000, 1.000000000000000000 ) ) ;
#108 = ORIENTED_EDGE ( 'NONE', *, *, #282, .T. ) ;
#109 = CIRCLE ( 'NONE', #285, 0.2000000000000000944 ) ;
#110 = CARTESIAN_POINT ( 'NONE',  ( 1.250000000000000000, 1.530808498934191571E-16, 317.0000000000000000 ) ) ;
#111 = EDGE_LOOP ( 'NONE', ( #301, #90, #250, #8 ) ) ;
#112 = CYLINDRICAL_SURFACE ( 'NONE', #240, 2.500000000000000000 ) ;
#113 = EDGE_CURVE ( 'NONE', #180, #114, #83, .T. ) ;
#114 = VERTEX_POINT ( 'NONE', #150 ) ;
#115 = DIRECTION ( 'NONE',  ( 1.000000000000000000, 0.000000000000000000, -0.000000000000000000 ) ) ;
#116 = APPLICATION_CONTEXT ( 'configuration controlled 3d designs of mechanical parts and assemblies' ) ;
#117 = DIRECTION ( 'NONE',  ( 1.224646799147353207E-16, 1.000000000000000000, -0.000000000000000000 ) ) ;
#118 = ADVANCED_FACE ( 'NONE', ( #37 ), #259, .F. ) ;
#119 = DIRECTION ( 'NONE',  ( 1.000000000000000000, 0.000000000000000000, 0.000000000000000000 ) ) ;
#120 = EDGE_CURVE ( 'NONE', #303, #14, #35, .T. ) ;
#121 = ADVANCED_FACE ( 'NONE', ( #84 ), #176, .T. ) ;
#122 = APPROVAL_DATE_TIME ( #168, #284 ) ;
#123 = AXIS2_PLACEMENT_3D ( 'NONE', #224, #104, #202 ) ;
#124 = DATE_AND_TIME ( #25, #261 ) ;
#125 = EDGE_CURVE ( 'NONE', #270, #159, #49, .T. ) ;
#126 = CARTESIAN_POINT ( 'NONE',  ( 0.000000000000000000, 0.000000000000000000, 0.000000000000000000 ) ) ;
#127 = VECTOR ( 'NONE', #132, 1000.000000000000000 ) ;
#128 = PLANE ( 'NONE',  #178 ) ;
#129 = CARTESIAN_POINT ( 'NONE',  ( 1.250000000000000000, 1.530808498934191571E-16, 317.0000000000000000 ) ) ;
#130 = FACE_BOUND ( 'NONE', #44, .T. ) ;
#131 = VERTEX_POINT ( 'NONE', #72 ) ;
#132 = DIRECTION ( 'NONE',  ( -0.000000000000000000, -0.000000000000000000, -1.000000000000000000 ) ) ;
#133 = ORIENTED_EDGE ( 'NONE', *, *, #125, .T. ) ;
#134 = AXIS2_PLACEMENT_3D ( 'NONE', #12, #238, #254 ) ;
#135 = CARTESIAN_POINT ( 'NONE',  ( 0.000000000000000000, 0.000000000000000000, 2.199999999999979750 ) ) ;
#136 = ORIENTED_EDGE ( 'NONE', *, *, #52, .T. ) ;
#137 = FACE_OUTER_BOUND ( 'NONE', #229, .T. ) ;
#138 = DESIGN_CONTEXT ( 'detailed design', #116, 'design' ) ;
#139 = APPROVAL_PERSON_ORGANIZATION ( #221, #54, #170 ) ;
#140 = DIRECTION ( 'NONE',  ( -0.000000000000000000, -0.000000000000000000, -1.000000000000000000 ) ) ;
#141 = DIRECTION ( 'NONE',  ( 0.000000000000000000, 0.000000000000000000, 1.000000000000000000 ) ) ;
#142 = APPROVAL_ROLE ( '' ) ;
#143 = CIRCLE ( 'NONE', #185, 1.250000000000000000 ) ;
#144 = CIRCLE ( 'NONE', #22, 1.250000000000000000 ) ;
#145 = DIRECTION ( 'NONE',  ( 1.000000000000000000, 0.000000000000000000, 0.000000000000000000 ) ) ;
#146 = VECTOR ( 'NONE', #140, 1000.000000000000000 ) ;
#147 = AXIS2_PLACEMENT_3D ( 'NONE', #166, #2, #145 ) ;
#148 = PRODUCT_DEFINITION ( 'NEZNÁMÝ', '', #201, #138 ) ;
#149 = CYLINDRICAL_SURFACE ( 'NONE', #191, 2.500000000000000000 ) ;
#150 = CARTESIAN_POINT ( 'NONE',  ( -1.250000000000000000, 0.000000000000000000, 2.199999999999979750 ) ) ;
#151 = AXIS2_PLACEMENT_3D ( 'NONE', #206, #58, #223 ) ;
#152 = ORIENTED_EDGE ( 'NONE', *, *, #218, .T. ) ;
#153 = AXIS2_PLACEMENT_3D ( 'NONE', #215, #189, #1 ) ;
#154 = CARTESIAN_POINT ( 'NONE',  ( 0.000000000000000000, 0.000000000000000000, 2.000000000000000000 ) ) ;
#155 = ORIENTED_EDGE ( 'NONE', *, *, #33, .T. ) ;
#156 = ORIENTED_EDGE ( 'NONE', *, *, #181, .F. ) ;
#157 = ORIENTED_EDGE ( 'NONE', *, *, #46, .T. ) ;
#158 = PLANE ( 'NONE',  #305 ) ;
#159 = VERTEX_POINT ( 'NONE', #160 ) ;
#160 = CARTESIAN_POINT ( 'NONE',  ( 1.450000000000000178, 0.000000000000000000, 1.999999999999989564 ) ) ;
#161 = CARTESIAN_POINT ( 'NONE',  ( 0.000000000000000000, 0.000000000000000000, 0.000000000000000000 ) ) ;
#162 = CC_DESIGN_PERSON_AND_ORGANIZATION_ASSIGNMENT ( #293, #239, ( #201 ) ) ;
#163 = AXIS2_PLACEMENT_3D ( 'NONE', #193, #93, #65 ) ;
#164 = LOCAL_TIME ( 12, 17, 29.00000000000000000, #78 ) ;
#165 = LINE ( 'NONE', #260, #146 ) ;
#166 = CARTESIAN_POINT ( 'NONE',  ( 0.000000000000000000, 0.000000000000000000, 0.000000000000000000 ) ) ;
#167 = SHAPE_DEFINITION_REPRESENTATION ( #16, #177 ) ;
#168 = DATE_AND_TIME ( #244, #164 ) ;
#169 = APPROVAL_PERSON_ORGANIZATION ( #96, #284, #264 ) ;
#170 = APPROVAL_ROLE ( '' ) ;
#171 = EDGE_CURVE ( 'NONE', #159, #131, #31, .T. ) ;
#172 = PERSON_AND_ORGANIZATION ( #298, #225 ) ;
#173 = EDGE_LOOP ( 'NONE', ( #157, #198 ) ) ;
#174 = CARTESIAN_POINT ( 'NONE',  ( -1.250000000000000000, 0.000000000000000000, 317.0000000000000000 ) ) ;
#175 = ADVANCED_FACE ( 'NONE', ( #137 ), #158, .F. ) ;
#176 = CYLINDRICAL_SURFACE ( 'NONE', #134, 1.250000000000000000 ) ;
#177 = ADVANCED_BREP_SHAPE_REPRESENTATION ( 'eed3', ( #7, #147 ), #266 ) ;
#178 = AXIS2_PLACEMENT_3D ( 'NONE', #228, #102, #59 ) ;
#179 = EDGE_LOOP ( 'NONE', ( #19, #13, #276, #81 ) ) ;
#180 = VERTEX_POINT ( 'NONE', #283 ) ;
#181 = EDGE_CURVE ( 'NONE', #114, #131, #109, .T. ) ;
#182 = EDGE_LOOP ( 'NONE', ( #108, #155 ) ) ;
#183 = DIRECTION ( 'NONE',  ( 0.000000000000000000, 0.000000000000000000, 1.000000000000000000 ) ) ;
#184 = ORIENTED_EDGE ( 'NONE', *, *, #57, .F. ) ;
#185 = AXIS2_PLACEMENT_3D ( 'NONE', #38, #252, #249 ) ;
#186 = DIRECTION ( 'NONE',  ( 1.000000000000000000, 0.000000000000000000, 0.000000000000000000 ) ) ;
#187 = CC_DESIGN_APPROVAL ( #284, ( #148 ) ) ;
#188 = DIRECTION ( 'NONE',  ( -1.000000000000000000, 0.000000000000000000, 0.000000000000000000 ) ) ;
#189 = DIRECTION ( 'NONE',  ( 0.000000000000000000, 0.000000000000000000, 1.000000000000000000 ) ) ;
#190 = DIRECTION ( 'NONE',  ( -0.000000000000000000, -0.000000000000000000, -1.000000000000000000 ) ) ;
#191 = AXIS2_PLACEMENT_3D ( 'NONE', #62, #60, #272 ) ;
#192 = LOCAL_TIME ( 12, 17, 29.00000000000000000, #76 ) ;
#193 = CARTESIAN_POINT ( 'NONE',  ( 1.450000000000000178, 0.000000000000000000, 2.199999999999979750 ) ) ;
#194 = DATE_AND_TIME ( #6, #217 ) ;
#195 = APPROVAL_STATUS ( 'not_yet_approved' ) ;
#196 = APPLICATION_PROTOCOL_DEFINITION ( 'international standard', 'config_control_design', 1994, #288 ) ;
#197 = DATE_TIME_ROLE ( 'creation_date' ) ;
#198 = ORIENTED_EDGE ( 'NONE', *, *, #251, .T. ) ;
#199 = CIRCLE ( 'NONE', #55, 2.500000000000000000 ) ;
#200 = DIRECTION ( 'NONE',  ( 1.000000000000000000, 0.000000000000000000, 0.000000000000000000 ) ) ;
#201 = PRODUCT_DEFINITION_FORMATION_WITH_SPECIFIED_SOURCE ( 'LIBOVOLNÝ', '', #63, .NOT_KNOWN. ) ;
#202 = DIRECTION ( 'NONE',  ( 1.000000000000000000, 0.000000000000000000, 0.000000000000000000 ) ) ;
#203 = CARTESIAN_POINT ( 'NONE',  ( 2.500000000000000000, 3.061616997868383141E-16, 0.000000000000000000 ) ) ;
#204 = ORIENTED_EDGE ( 'NONE', *, *, #56, .F. ) ;
#205 = VERTEX_POINT ( 'NONE', #214 ) ;
#206 = CARTESIAN_POINT ( 'NONE',  ( 0.000000000000000000, 0.000000000000000000, 2.000000000000000000 ) ) ;
#207 = ORIENTED_EDGE ( 'NONE', *, *, #33, .F. ) ;
#208 = CARTESIAN_POINT ( 'NONE',  ( 1.250000000000000000, 1.530808498934191571E-16, 2.199999999999979750 ) ) ;
#209 = ORIENTED_EDGE ( 'NONE', *, *, #113, .F. ) ;
#210 = EDGE_CURVE ( 'NONE', #233, #205, #165, .T. ) ;
#211 =( NAMED_UNIT ( * ) PLANE_ANGLE_UNIT ( ) SI_UNIT ( $, .RADIAN. ) );
#212 = AXIS2_PLACEMENT_3D ( 'NONE', #69, #306, #256 ) ;
#213 = DIRECTION ( 'NONE',  ( -0.000000000000000000, -0.000000000000000000, -1.000000000000000000 ) ) ;
#214 = CARTESIAN_POINT ( 'NONE',  ( -2.500000000000000000, 0.000000000000000000, 0.000000000000000000 ) ) ;
#215 = CARTESIAN_POINT ( 'NONE',  ( 0.000000000000000000, 0.000000000000000000, 2.000000000000000000 ) ) ;
#216 = APPROVAL ( #195, 'NEURÈENÝ' ) ;
#217 = LOCAL_TIME ( 12, 17, 29.00000000000000000, #80 ) ;
#218 = EDGE_CURVE ( 'NONE', #14, #205, #199, .T. ) ;
#219 = AXIS2_PLACEMENT_3D ( 'NONE', #89, #183, #200 ) ;
#220 = CC_DESIGN_DATE_AND_TIME_ASSIGNMENT ( #194, #197, ( #148 ) ) ;
#221 = PERSON_AND_ORGANIZATION ( #298, #225 ) ;
#222 = ADVANCED_FACE ( 'NONE', ( #307 ), #112, .T. ) ;
#223 = DIRECTION ( 'NONE',  ( 1.000000000000000000, 0.000000000000000000, 0.000000000000000000 ) ) ;
#224 = CARTESIAN_POINT ( 'NONE',  ( 0.000000000000000000, 0.000000000000000000, 2.199999999999979750 ) ) ;
#225 = ORGANIZATION ( 'NEURÈENÝ', 'NEURÈENÝ', '' ) ;
#226 = CARTESIAN_POINT ( 'NONE',  ( 2.500000000000000000, 3.061616997868383141E-16, 2.000000000000000000 ) ) ;
#227 = ADVANCED_FACE ( 'NONE', ( #263 ), #281, .T. ) ;
#228 = CARTESIAN_POINT ( 'NONE',  ( 0.000000000000000000, 0.000000000000000000, 2.000000000000000000 ) ) ;
#229 = EDGE_LOOP ( 'NONE', ( #204, #17 ) ) ;
#230 = FACE_OUTER_BOUND ( 'NONE', #173, .T. ) ;
#231 = EDGE_LOOP ( 'NONE', ( #207, #64, #136, #209 ) ) ;
#232 = CARTESIAN_POINT ( 'NONE',  ( 0.000000000000000000, 0.000000000000000000, 317.0000000000000000 ) ) ;
#233 = VERTEX_POINT ( 'NONE', #20 ) ;
#234 = DIRECTION ( 'NONE',  ( 1.000000000000000000, 0.000000000000000000, 0.000000000000000000 ) ) ;
#235 = CARTESIAN_POINT ( 'NONE',  ( 0.000000000000000000, 0.000000000000000000, 2.000000000000000000 ) ) ;
#236 = LOCAL_TIME ( 12, 17, 29.00000000000000000, #265 ) ;
#237 = DIRECTION ( 'NONE',  ( 0.000000000000000000, 0.000000000000000000, 1.000000000000000000 ) ) ;
#238 = DIRECTION ( 'NONE',  ( -0.000000000000000000, -0.000000000000000000, -1.000000000000000000 ) ) ;
#239 = PERSON_AND_ORGANIZATION_ROLE ( 'creator' ) ;
#240 = AXIS2_PLACEMENT_3D ( 'NONE', #50, #213, #188 ) ;
#241 = DATE_AND_TIME ( #268, #192 ) ;
#242 = DATE_TIME_ROLE ( 'classification_date' ) ;
#243 = DATE_AND_TIME ( #5, #236 ) ;
#244 = CALENDAR_DATE ( 2022, 20, 6 ) ;
#245 = EDGE_CURVE ( 'NONE', #114, #270, #291, .T. ) ;
#246 = CARTESIAN_POINT ( 'NONE',  ( 0.000000000000000000, 0.000000000000000000, 317.0000000000000000 ) ) ;
#247 = CIRCLE ( 'NONE', #41, 1.250000000000000000 ) ;
#248 = DIRECTION ( 'NONE',  ( 1.000000000000000000, 0.000000000000000000, 0.000000000000000000 ) ) ;
#249 = DIRECTION ( 'NONE',  ( 1.000000000000000000, 0.000000000000000000, 0.000000000000000000 ) ) ;
#250 = ORIENTED_EDGE ( 'NONE', *, *, #210, .T. ) ;
#251 = EDGE_CURVE ( 'NONE', #303, #233, #103, .T. ) ;
#252 = DIRECTION ( 'NONE',  ( 0.000000000000000000, 0.000000000000000000, 1.000000000000000000 ) ) ;
#253 = ORIENTED_EDGE ( 'NONE', *, *, #61, .T. ) ;
#254 = DIRECTION ( 'NONE',  ( -1.000000000000000000, 0.000000000000000000, 0.000000000000000000 ) ) ;
#255 = ORIENTED_EDGE ( 'NONE', *, *, #120, .T. ) ;
#256 = DIRECTION ( 'NONE',  ( 1.000000000000000000, 0.000000000000000000, -0.000000000000000000 ) ) ;
#257 = UNCERTAINTY_MEASURE_WITH_UNIT (LENGTH_MEASURE( 1.000000000000000082E-05 ), #71, 'distance_accuracy_value', 'NONE');
#258 = DIRECTION ( 'NONE',  ( -1.000000000000000000, 0.000000000000000000, 0.000000000000000000 ) ) ;
#259 = TOROIDAL_SURFACE ( 'NONE', #123, 1.450000000000000178, 0.2000000000000000111 ) ;
#260 = CARTESIAN_POINT ( 'NONE',  ( -2.500000000000000000, 0.000000000000000000, 2.000000000000000000 ) ) ;
#261 = LOCAL_TIME ( 12, 17, 29.00000000000000000, #287 ) ;
#262 = ADVANCED_FACE ( 'NONE', ( #21 ), #95, .T. ) ;
#263 = FACE_OUTER_BOUND ( 'NONE', #182, .T. ) ;
#264 = APPROVAL_ROLE ( '' ) ;
#265 = COORDINATED_UNIVERSAL_TIME_OFFSET ( 1, 0, .AHEAD. ) ;
#266 =( GEOMETRIC_REPRESENTATION_CONTEXT ( 3 ) GLOBAL_UNCERTAINTY_ASSIGNED_CONTEXT ( ( #257 ) ) GLOBAL_UNIT_ASSIGNED_CONTEXT ( ( #71, #211, #280 ) ) REPRESENTATION_CONTEXT ( 'NONE', 'WORKASPACE' ) );
#267 = PERSON_AND_ORGANIZATION_ROLE ( 'classification_officer' ) ;
#268 = CALENDAR_DATE ( 2022, 20, 6 ) ;
#269 = APPROVAL_DATE_TIME ( #241, #54 ) ;
#270 = VERTEX_POINT ( 'NONE', #208 ) ;
#271 = DIRECTION ( 'NONE',  ( -0.000000000000000000, -0.000000000000000000, -1.000000000000000000 ) ) ;
#272 = DIRECTION ( 'NONE',  ( -1.000000000000000000, 0.000000000000000000, 0.000000000000000000 ) ) ;
#273 = ORIENTED_EDGE ( 'NONE', *, *, #245, .T. ) ;
#274 = FACE_OUTER_BOUND ( 'NONE', #111, .T. ) ;
#275 = ORIENTED_EDGE ( 'NONE', *, *, #113, .T. ) ;
#276 = ORIENTED_EDGE ( 'NONE', *, *, #171, .F. ) ;
#277 = ORIENTED_EDGE ( 'NONE', *, *, #171, .T. ) ;
#278 = AXIS2_PLACEMENT_3D ( 'NONE', #154, #107, #299 ) ;
#279 = APPROVAL_PERSON_ORGANIZATION ( #3, #216, #142 ) ;
#280 =( NAMED_UNIT ( * ) SI_UNIT ( $, .STERADIAN. ) SOLID_ANGLE_UNIT ( ) );
#281 = PLANE ( 'NONE',  #212 ) ;
#282 = EDGE_CURVE ( 'NONE', #180, #85, #144, .T. ) ;
#283 = CARTESIAN_POINT ( 'NONE',  ( -1.250000000000000000, 0.000000000000000000, 317.0000000000000000 ) ) ;
#284 = APPROVAL ( #75, 'NEURÈENÝ' ) ;
#285 = AXIS2_PLACEMENT_3D ( 'NONE', #94, #117, #24 ) ;
#286 = CC_DESIGN_SECURITY_CLASSIFICATION ( #292, ( #201 ) ) ;
#287 = COORDINATED_UNIVERSAL_TIME_OFFSET ( 1, 0, .AHEAD. ) ;
#288 = APPLICATION_CONTEXT ( 'configuration controlled 3d designs of mechanical parts and assemblies' ) ;
#289 = SECURITY_CLASSIFICATION_LEVEL ( 'unclassified' ) ;
#290 = APPLICATION_PROTOCOL_DEFINITION ( 'international standard', 'config_control_design', 1994, #116 ) ;
#291 = CIRCLE ( 'NONE', #68, 1.250000000000000000 ) ;
#292 = SECURITY_CLASSIFICATION ( '', '', #289 ) ;
#293 = PERSON_AND_ORGANIZATION ( #298, #225 ) ;
#294 = CIRCLE ( 'NONE', #278, 2.500000000000000000 ) ;
#295 = ORIENTED_EDGE ( 'NONE', *, *, #61, .F. ) ;
#296 = DIRECTION ( 'NONE',  ( -0.000000000000000000, -0.000000000000000000, -1.000000000000000000 ) ) ;
#297 = ORIENTED_EDGE ( 'NONE', *, *, #52, .F. ) ;
#298 = PERSON ( 'NEURÈENÝ', 'NEURÈENÝ', 'NEURÈENÝ', ('NEURÈENÝ'), ('NEURÈENÝ'), ('NEURÈENÝ') ) ;
#299 = DIRECTION ( 'NONE',  ( 1.000000000000000000, 0.000000000000000000, 0.000000000000000000 ) ) ;
#300 = CC_DESIGN_APPROVAL ( #216, ( #201 ) ) ;
#301 = ORIENTED_EDGE ( 'NONE', *, *, #120, .F. ) ;
#302 = FACE_OUTER_BOUND ( 'NONE', #105, .T. ) ;
#303 = VERTEX_POINT ( 'NONE', #91 ) ;
#304 = DIRECTION ( 'NONE',  ( 1.000000000000000000, 0.000000000000000000, 0.000000000000000000 ) ) ;
#305 = AXIS2_PLACEMENT_3D ( 'NONE', #161, #141, #115 ) ;
#306 = DIRECTION ( 'NONE',  ( 0.000000000000000000, 0.000000000000000000, 1.000000000000000000 ) ) ;
#307 = FACE_OUTER_BOUND ( 'NONE', #67, .T. ) ;
ENDSEC;
END-ISO-10303-21;
