ISO-10303-21;
HEADER;
FILE_DESCRIPTION (( 'STEP AP203' ),
    '1' );
FILE_NAME ('77a2.STEP',
    '2022-06-20T09:50:58',
    ( '' ),
    ( '' ),
    'SwSTEP 2.0',
    'SolidWorks 2019',
    '' );
FILE_SCHEMA (( 'CONFIG_CONTROL_DESIGN' ));
ENDSEC;

DATA;
#1 = PLANE ( 'NONE',  #11 ) ;
#2 = AXIS2_PLACEMENT_3D ( 'NONE', #90, #63, #157 ) ;
#3 = EDGE_CURVE ( 'NONE', #158, #153, #122, .T. ) ;
#4 = VECTOR ( 'NONE', #217, 1000.000000000000000 ) ;
#5 = DIRECTION ( 'NONE',  ( -0.000000000000000000, -0.000000000000000000, -1.000000000000000000 ) ) ;
#6 = VERTEX_POINT ( 'NONE', #76 ) ;
#7 = APPLICATION_PROTOCOL_DEFINITION ( 'international standard', 'config_control_design', 1994, #24 ) ;
#8 = EDGE_CURVE ( 'NONE', #6, #62, #165, .T. ) ;
#9 = ORIENTED_EDGE ( 'NONE', *, *, #278, .T. ) ;
#10 = CYLINDRICAL_SURFACE ( 'NONE', #49, 6.000000000000000888 ) ;
#11 = AXIS2_PLACEMENT_3D ( 'NONE', #238, #190, #290 ) ;
#12 = FACE_OUTER_BOUND ( 'NONE', #30, .T. ) ;
#13 = ORIENTED_EDGE ( 'NONE', *, *, #125, .F. ) ;
#14 = ORIENTED_EDGE ( 'NONE', *, *, #100, .T. ) ;
#15 = APPROVAL_ROLE ( '' ) ;
#16 =( GEOMETRIC_REPRESENTATION_CONTEXT ( 3 ) GLOBAL_UNCERTAINTY_ASSIGNED_CONTEXT ( ( #203 ) ) GLOBAL_UNIT_ASSIGNED_CONTEXT ( ( #65, #201, #243 ) ) REPRESENTATION_CONTEXT ( 'NONE', 'WORKASPACE' ) );
#17 = DATE_TIME_ROLE ( 'classification_date' ) ;
#18 = ADVANCED_FACE ( 'NONE', ( #140 ), #115, .F. ) ;
#19 = APPROVAL_ROLE ( '' ) ;
#20 = SHAPE_DEFINITION_REPRESENTATION ( #267, #40 ) ;
#21 = PRODUCT_DEFINITION_FORMATION_WITH_SPECIFIED_SOURCE ( 'LIBOVOLNÝ', '', #57, .NOT_KNOWN. ) ;
#22 = ADVANCED_FACE ( 'NONE', ( #95, #183 ), #138, .T. ) ;
#23 = DIRECTION ( 'NONE',  ( 1.000000000000000000, 0.000000000000000000, 0.000000000000000000 ) ) ;
#24 = APPLICATION_CONTEXT ( 'configuration controlled 3d designs of mechanical parts and assemblies' ) ;
#25 = DIRECTION ( 'NONE',  ( 0.000000000000000000, 0.000000000000000000, 1.000000000000000000 ) ) ;
#26 = CIRCLE ( 'NONE', #75, 0.1999999999999996503 ) ;
#27 = DIRECTION ( 'NONE',  ( 0.000000000000000000, -1.000000000000000000, 0.000000000000000000 ) ) ;
#28 = EDGE_LOOP ( 'NONE', ( #87, #14 ) ) ;
#29 = AXIS2_PLACEMENT_3D ( 'NONE', #82, #150, #173 ) ;
#30 = EDGE_LOOP ( 'NONE', ( #246, #109, #281, #273 ) ) ;
#31 = LINE ( 'NONE', #298, #60 ) ;
#32 = EDGE_LOOP ( 'NONE', ( #156, #176, #137, #9 ) ) ;
#33 = CARTESIAN_POINT ( 'NONE',  ( 3.949999999999999734, 0.000000000000000000, 5.000000000000005329 ) ) ;
#34 = ORIENTED_EDGE ( 'NONE', *, *, #292, .F. ) ;
#35 = CIRCLE ( 'NONE', #94, 6.000000000000000888 ) ;
#36 = CARTESIAN_POINT ( 'NONE',  ( 0.000000000000000000, 0.000000000000000000, 205.0000000000000284 ) ) ;
#37 = CC_DESIGN_PERSON_AND_ORGANIZATION_ASSIGNMENT ( #97, #306, ( #57 ) ) ;
#38 = ORIENTED_EDGE ( 'NONE', *, *, #195, .F. ) ;
#39 = APPROVAL_ROLE ( '' ) ;
#40 = ADVANCED_BREP_SHAPE_REPRESENTATION ( '77a2', ( #136, #120 ), #16 ) ;
#41 = SECURITY_CLASSIFICATION_LEVEL ( 'unclassified' ) ;
#42 = PLANE ( 'NONE',  #269 ) ;
#43 = APPROVAL ( #285, 'NEURÈENÝ' ) ;
#44 = PERSON_AND_ORGANIZATION_ROLE ( 'creator' ) ;
#45 = APPROVAL_DATE_TIME ( #168, #66 ) ;
#46 = CARTESIAN_POINT ( 'NONE',  ( 0.000000000000000000, 0.000000000000000000, 5.200000000000009948 ) ) ;
#47 = PERSON_AND_ORGANIZATION ( #106, #89 ) ;
#48 = DIRECTION ( 'NONE',  ( 0.000000000000000000, 0.000000000000000000, 1.000000000000000000 ) ) ;
#49 = AXIS2_PLACEMENT_3D ( 'NONE', #193, #5, #272 ) ;
#50 = EDGE_CURVE ( 'NONE', #62, #300, #199, .T. ) ;
#51 = DIRECTION ( 'NONE',  ( -1.000000000000000000, 0.000000000000000000, 0.000000000000000000 ) ) ;
#52 = ADVANCED_FACE ( 'NONE', ( #228 ), #291, .F. ) ;
#53 = CARTESIAN_POINT ( 'NONE',  ( 3.750000000000000000, 4.592425496802573972E-16, 5.200000000000009948 ) ) ;
#54 = LOCAL_TIME ( 11, 50, 58.00000000000000000, #303 ) ;
#55 = DIRECTION ( 'NONE',  ( 0.000000000000000000, 0.000000000000000000, 1.000000000000000000 ) ) ;
#56 = VERTEX_POINT ( 'NONE', #259 ) ;
#57 = PRODUCT ( '77a2', '77a2', '', ( #194 ) ) ;
#58 = ADVANCED_FACE ( 'NONE', ( #254 ), #42, .T. ) ;
#59 = ORIENTED_EDGE ( 'NONE', *, *, #119, .T. ) ;
#60 = VECTOR ( 'NONE', #247, 1000.000000000000000 ) ;
#61 = DIRECTION ( 'NONE',  ( 0.000000000000000000, 0.000000000000000000, 1.000000000000000000 ) ) ;
#62 = VERTEX_POINT ( 'NONE', #263 ) ;
#63 = DIRECTION ( 'NONE',  ( -0.000000000000000000, -0.000000000000000000, -1.000000000000000000 ) ) ;
#64 = ORIENTED_EDGE ( 'NONE', *, *, #284, .F. ) ;
#65 =( LENGTH_UNIT ( ) NAMED_UNIT ( * ) SI_UNIT ( .MILLI., .METRE. ) );
#66 = APPROVAL ( #204, 'NEURÈENÝ' ) ;
#67 = CIRCLE ( 'NONE', #229, 3.750000000000000000 ) ;
#68 = DIRECTION ( 'NONE',  ( 0.000000000000000000, 0.000000000000000000, 1.000000000000000000 ) ) ;
#69 = ORIENTED_EDGE ( 'NONE', *, *, #181, .F. ) ;
#70 = EDGE_CURVE ( 'NONE', #56, #161, #213, .T. ) ;
#71 = APPROVAL_STATUS ( 'not_yet_approved' ) ;
#72 = DIRECTION ( 'NONE',  ( 0.000000000000000000, 0.000000000000000000, 1.000000000000000000 ) ) ;
#73 = COORDINATED_UNIVERSAL_TIME_OFFSET ( 1, 0, .AHEAD. ) ;
#74 = AXIS2_PLACEMENT_3D ( 'NONE', #164, #302, #231 ) ;
#75 = AXIS2_PLACEMENT_3D ( 'NONE', #102, #27, #147 ) ;
#76 = CARTESIAN_POINT ( 'NONE',  ( -3.750000000000000000, 0.000000000000000000, 205.0000000000000284 ) ) ;
#77 = CALENDAR_DATE ( 2022, 20, 6 ) ;
#78 = PERSON_AND_ORGANIZATION_ROLE ( 'classification_officer' ) ;
#79 = PRODUCT_DEFINITION ( 'NEZNÁMÝ', '', #21, #255 ) ;
#80 = APPROVAL_PERSON_ORGANIZATION ( #208, #66, #39 ) ;
#81 = APPLICATION_CONTEXT ( 'configuration controlled 3d designs of mechanical parts and assemblies' ) ;
#82 = CARTESIAN_POINT ( 'NONE',  ( 0.000000000000000000, 0.000000000000000000, 0.000000000000000000 ) ) ;
#83 = CYLINDRICAL_SURFACE ( 'NONE', #187, 3.750000000000000000 ) ;
#84 = ORIENTED_EDGE ( 'NONE', *, *, #50, .T. ) ;
#85 = DIRECTION ( 'NONE',  ( 0.000000000000000000, 0.000000000000000000, 1.000000000000000000 ) ) ;
#86 = ADVANCED_FACE ( 'NONE', ( #121 ), #83, .T. ) ;
#87 = ORIENTED_EDGE ( 'NONE', *, *, #284, .T. ) ;
#88 = DIRECTION ( 'NONE',  ( 0.000000000000000000, 0.000000000000000000, 1.000000000000000000 ) ) ;
#89 = ORGANIZATION ( 'NEURÈENÝ', 'NEURÈENÝ', '' ) ;
#90 = CARTESIAN_POINT ( 'NONE',  ( 0.000000000000000000, 0.000000000000000000, 205.0000000000000284 ) ) ;
#91 = PRODUCT_RELATED_PRODUCT_CATEGORY ( 'detail', '', ( #57 ) ) ;
#92 = DIRECTION ( 'NONE',  ( 1.000000000000000000, 0.000000000000000000, 0.000000000000000000 ) ) ;
#93 = CARTESIAN_POINT ( 'NONE',  ( 0.000000000000000000, 0.000000000000000000, 5.000000000000000000 ) ) ;
#94 = AXIS2_PLACEMENT_3D ( 'NONE', #155, #85, #220 ) ;
#95 = FACE_BOUND ( 'NONE', #28, .T. ) ;
#96 = COORDINATED_UNIVERSAL_TIME_OFFSET ( 1, 0, .AHEAD. ) ;
#97 = PERSON_AND_ORGANIZATION ( #106, #89 ) ;
#98 = APPROVAL_DATE_TIME ( #210, #43 ) ;
#99 = AXIS2_PLACEMENT_3D ( 'NONE', #143, #48, #286 ) ;
#100 = EDGE_CURVE ( 'NONE', #300, #209, #277, .T. ) ;
#101 = DATE_TIME_ROLE ( 'creation_date' ) ;
#102 = CARTESIAN_POINT ( 'NONE',  ( 3.949999999999999734, 0.000000000000000000, 5.200000000000009948 ) ) ;
#103 = CIRCLE ( 'NONE', #141, 6.000000000000000888 ) ;
#104 = DIRECTION ( 'NONE',  ( 1.000000000000000000, 0.000000000000000000, 0.000000000000000000 ) ) ;
#105 = AXIS2_PLACEMENT_3D ( 'NONE', #36, #61, #197 ) ;
#106 = PERSON ( 'NEURÈENÝ', 'NEURÈENÝ', 'NEURÈENÝ', ('NEURÈENÝ'), ('NEURÈENÝ'), ('NEURÈENÝ') ) ;
#107 = ORIENTED_EDGE ( 'NONE', *, *, #181, .T. ) ;
#108 = DIRECTION ( 'NONE',  ( 1.000000000000000000, 0.000000000000000000, 0.000000000000000000 ) ) ;
#109 = ORIENTED_EDGE ( 'NONE', *, *, #264, .F. ) ;
#110 = DIRECTION ( 'NONE',  ( 0.000000000000000000, 0.000000000000000000, 1.000000000000000000 ) ) ;
#111 = AXIS2_PLACEMENT_3D ( 'NONE', #126, #249, #266 ) ;
#112 = EDGE_LOOP ( 'NONE', ( #196, #279 ) ) ;
#113 = CYLINDRICAL_SURFACE ( 'NONE', #174, 6.000000000000000888 ) ;
#114 = PERSON_AND_ORGANIZATION ( #106, #89 ) ;
#115 = TOROIDAL_SURFACE ( 'NONE', #99, 3.949999999999999734, 0.2000000000000000111 ) ;
#116 = PERSON_AND_ORGANIZATION ( #106, #89 ) ;
#117 = APPLICATION_PROTOCOL_DEFINITION ( 'international standard', 'config_control_design', 1994, #81 ) ;
#118 = DIRECTION ( 'NONE',  ( 1.224646799147353207E-16, 1.000000000000000000, -0.000000000000000000 ) ) ;
#119 = EDGE_CURVE ( 'NONE', #158, #134, #175, .T. ) ;
#120 = AXIS2_PLACEMENT_3D ( 'NONE', #276, #68, #108 ) ;
#121 = FACE_OUTER_BOUND ( 'NONE', #271, .T. ) ;
#122 = CIRCLE ( 'NONE', #297, 6.000000000000000888 ) ;
#123 = CARTESIAN_POINT ( 'NONE',  ( -6.000000000000000888, 0.000000000000000000, 5.000000000000000000 ) ) ;
#124 = CARTESIAN_POINT ( 'NONE',  ( 6.000000000000000888, 7.347880794884120722E-16, 0.000000000000000000 ) ) ;
#125 = EDGE_CURVE ( 'NONE', #161, #209, #26, .T. ) ;
#126 = CARTESIAN_POINT ( 'NONE',  ( 0.000000000000000000, 0.000000000000000000, 5.000000000000000000 ) ) ;
#127 = LOCAL_TIME ( 11, 50, 58.00000000000000000, #280 ) ;
#128 = ORIENTED_EDGE ( 'NONE', *, *, #264, .T. ) ;
#129 = FACE_OUTER_BOUND ( 'NONE', #275, .T. ) ;
#130 = CC_DESIGN_DATE_AND_TIME_ASSIGNMENT ( #258, #101, ( #79 ) ) ;
#131 = ORIENTED_EDGE ( 'NONE', *, *, #145, .T. ) ;
#132 = CARTESIAN_POINT ( 'NONE',  ( -3.949999999999999734, 4.837354856632044071E-16, 5.000000000000005329 ) ) ;
#133 = CIRCLE ( 'NONE', #29, 6.000000000000000888 ) ;
#134 = VERTEX_POINT ( 'NONE', #124 ) ;
#135 = CARTESIAN_POINT ( 'NONE',  ( 0.000000000000000000, 0.000000000000000000, 5.000000000000000000 ) ) ;
#136 = MANIFOLD_SOLID_BREP ( 'Zaoblit1', #146 ) ;
#137 = ORIENTED_EDGE ( 'NONE', *, *, #292, .T. ) ;
#138 = PLANE ( 'NONE',  #74 ) ;
#139 = CARTESIAN_POINT ( 'NONE',  ( 0.000000000000000000, 0.000000000000000000, 205.0000000000000284 ) ) ;
#140 = FACE_OUTER_BOUND ( 'NONE', #265, .T. ) ;
#141 = AXIS2_PLACEMENT_3D ( 'NONE', #135, #110, #92 ) ;
#142 = PERSON_AND_ORGANIZATION_ROLE ( 'design_supplier' ) ;
#143 = CARTESIAN_POINT ( 'NONE',  ( 0.000000000000000000, 0.000000000000000000, 5.200000000000009948 ) ) ;
#144 = DATE_AND_TIME ( #305, #54 ) ;
#145 = EDGE_CURVE ( 'NONE', #134, #192, #133, .T. ) ;
#146 = CLOSED_SHELL ( 'NONE', ( #18, #86, #256, #207, #22, #167, #240, #58, #52 ) ) ;
#147 = DIRECTION ( 'NONE',  ( 0.000000000000000000, 0.000000000000000000, -1.000000000000000000 ) ) ;
#148 = AXIS2_PLACEMENT_3D ( 'NONE', #289, #293, #23 ) ;
#149 = CARTESIAN_POINT ( 'NONE',  ( 3.750000000000000000, 4.592425496802573972E-16, 205.0000000000000284 ) ) ;
#150 = DIRECTION ( 'NONE',  ( 0.000000000000000000, 0.000000000000000000, 1.000000000000000000 ) ) ;
#151 = DIRECTION ( 'NONE',  ( 1.000000000000000000, 0.000000000000000000, 0.000000000000000000 ) ) ;
#152 = AXIS2_PLACEMENT_3D ( 'NONE', #46, #25, #104 ) ;
#153 = VERTEX_POINT ( 'NONE', #123 ) ;
#154 = CC_DESIGN_PERSON_AND_ORGANIZATION_ASSIGNMENT ( #116, #206, ( #79 ) ) ;
#155 = CARTESIAN_POINT ( 'NONE',  ( 0.000000000000000000, 0.000000000000000000, 0.000000000000000000 ) ) ;
#156 = ORIENTED_EDGE ( 'NONE', *, *, #119, .F. ) ;
#157 = DIRECTION ( 'NONE',  ( -1.000000000000000000, 0.000000000000000000, 0.000000000000000000 ) ) ;
#158 = VERTEX_POINT ( 'NONE', #239 ) ;
#159 = DIRECTION ( 'NONE',  ( 1.000000000000000000, 0.000000000000000000, 0.000000000000000000 ) ) ;
#160 = LOCAL_TIME ( 11, 50, 58.00000000000000000, #96 ) ;
#161 = VERTEX_POINT ( 'NONE', #53 ) ;
#162 = CC_DESIGN_APPROVAL ( #66, ( #301 ) ) ;
#163 = DIRECTION ( 'NONE',  ( 1.000000000000000000, 0.000000000000000000, 0.000000000000000000 ) ) ;
#164 = CARTESIAN_POINT ( 'NONE',  ( 0.000000000000000000, 0.000000000000000000, 5.000000000000000000 ) ) ;
#165 = LINE ( 'NONE', #304, #224 ) ;
#166 = VECTOR ( 'NONE', #215, 1000.000000000000000 ) ;
#167 = ADVANCED_FACE ( 'NONE', ( #235 ), #1, .F. ) ;
#168 = DATE_AND_TIME ( #77, #242 ) ;
#169 = DIRECTION ( 'NONE',  ( -1.000000000000000000, 1.224646799147353454E-16, 0.000000000000000000 ) ) ;
#170 = PERSON_AND_ORGANIZATION ( #106, #89 ) ;
#171 = LOCAL_TIME ( 11, 50, 58.00000000000000000, #282 ) ;
#172 = APPROVAL ( #71, 'NEURÈENÝ' ) ;
#173 = DIRECTION ( 'NONE',  ( 1.000000000000000000, 0.000000000000000000, 0.000000000000000000 ) ) ;
#174 = AXIS2_PLACEMENT_3D ( 'NONE', #270, #245, #274 ) ;
#175 = LINE ( 'NONE', #236, #166 ) ;
#176 = ORIENTED_EDGE ( 'NONE', *, *, #225, .F. ) ;
#177 = ORIENTED_EDGE ( 'NONE', *, *, #3, .F. ) ;
#178 = DIRECTION ( 'NONE',  ( 0.000000000000000000, 0.000000000000000000, 1.000000000000000000 ) ) ;
#179 = CARTESIAN_POINT ( 'NONE',  ( 0.000000000000000000, 0.000000000000000000, 5.200000000000009948 ) ) ;
#180 = CARTESIAN_POINT ( 'NONE',  ( 0.000000000000000000, 0.000000000000000000, 5.200000000000009948 ) ) ;
#181 = EDGE_CURVE ( 'NONE', #161, #62, #182, .T. ) ;
#182 = CIRCLE ( 'NONE', #205, 3.750000000000000000 ) ;
#183 = FACE_OUTER_BOUND ( 'NONE', #223, .T. ) ;
#184 = PERSON_AND_ORGANIZATION ( #106, #89 ) ;
#185 = CALENDAR_DATE ( 2022, 20, 6 ) ;
#186 = APPROVAL_PERSON_ORGANIZATION ( #47, #172, #15 ) ;
#187 = AXIS2_PLACEMENT_3D ( 'NONE', #307, #188, #51 ) ;
#188 = DIRECTION ( 'NONE',  ( -0.000000000000000000, -0.000000000000000000, -1.000000000000000000 ) ) ;
#189 = CC_DESIGN_PERSON_AND_ORGANIZATION_ASSIGNMENT ( #260, #142, ( #21 ) ) ;
#190 = DIRECTION ( 'NONE',  ( 0.000000000000000000, 0.000000000000000000, 1.000000000000000000 ) ) ;
#191 = APPROVAL_PERSON_ORGANIZATION ( #184, #43, #19 ) ;
#192 = VERTEX_POINT ( 'NONE', #299 ) ;
#193 = CARTESIAN_POINT ( 'NONE',  ( 0.000000000000000000, 0.000000000000000000, 5.000000000000000000 ) ) ;
#194 = MECHANICAL_CONTEXT ( 'NONE', #24, 'mechanical' ) ;
#195 = EDGE_CURVE ( 'NONE', #62, #161, #218, .T. ) ;
#196 = ORIENTED_EDGE ( 'NONE', *, *, #278, .F. ) ;
#197 = DIRECTION ( 'NONE',  ( 1.000000000000000000, 0.000000000000000000, 0.000000000000000000 ) ) ;
#198 = AXIS2_PLACEMENT_3D ( 'NONE', #179, #222, #151 ) ;
#199 = CIRCLE ( 'NONE', #288, 0.1999999999999996503 ) ;
#200 = ORIENTED_EDGE ( 'NONE', *, *, #225, .T. ) ;
#201 =( NAMED_UNIT ( * ) PLANE_ANGLE_UNIT ( ) SI_UNIT ( $, .RADIAN. ) );
#202 = ORIENTED_EDGE ( 'NONE', *, *, #100, .F. ) ;
#203 = UNCERTAINTY_MEASURE_WITH_UNIT (LENGTH_MEASURE( 1.000000000000000082E-05 ), #65, 'distance_accuracy_value', 'NONE');
#204 = APPROVAL_STATUS ( 'not_yet_approved' ) ;
#205 = AXIS2_PLACEMENT_3D ( 'NONE', #180, #88, #159 ) ;
#206 = PERSON_AND_ORGANIZATION_ROLE ( 'creator' ) ;
#207 = ADVANCED_FACE ( 'NONE', ( #219 ), #10, .T. ) ;
#208 = PERSON_AND_ORGANIZATION ( #106, #89 ) ;
#209 = VERTEX_POINT ( 'NONE', #33 ) ;
#210 = DATE_AND_TIME ( #257, #127 ) ;
#211 = CC_DESIGN_PERSON_AND_ORGANIZATION_ASSIGNMENT ( #170, #78, ( #301 ) ) ;
#212 = DIRECTION ( 'NONE',  ( 1.000000000000000000, 0.000000000000000000, -0.000000000000000000 ) ) ;
#213 = LINE ( 'NONE', #149, #4 ) ;
#214 = CC_DESIGN_SECURITY_CLASSIFICATION ( #301, ( #21 ) ) ;
#215 = DIRECTION ( 'NONE',  ( -0.000000000000000000, -0.000000000000000000, -1.000000000000000000 ) ) ;
#216 = EDGE_CURVE ( 'NONE', #56, #6, #67, .T. ) ;
#217 = DIRECTION ( 'NONE',  ( -0.000000000000000000, -0.000000000000000000, -1.000000000000000000 ) ) ;
#218 = CIRCLE ( 'NONE', #198, 3.750000000000000000 ) ;
#219 = FACE_OUTER_BOUND ( 'NONE', #32, .T. ) ;
#220 = DIRECTION ( 'NONE',  ( 1.000000000000000000, 0.000000000000000000, 0.000000000000000000 ) ) ;
#221 = EDGE_LOOP ( 'NONE', ( #128, #294 ) ) ;
#222 = DIRECTION ( 'NONE',  ( 0.000000000000000000, 0.000000000000000000, 1.000000000000000000 ) ) ;
#223 = EDGE_LOOP ( 'NONE', ( #200, #251 ) ) ;
#224 = VECTOR ( 'NONE', #232, 1000.000000000000000 ) ;
#225 = EDGE_CURVE ( 'NONE', #153, #158, #103, .T. ) ;
#226 = ORIENTED_EDGE ( 'NONE', *, *, #50, .F. ) ;
#227 = EDGE_LOOP ( 'NONE', ( #226, #69, #268, #202 ) ) ;
#228 = FACE_OUTER_BOUND ( 'NONE', #227, .T. ) ;
#229 = AXIS2_PLACEMENT_3D ( 'NONE', #295, #178, #163 ) ;
#230 = DATE_AND_TIME ( #233, #171 ) ;
#231 = DIRECTION ( 'NONE',  ( 1.000000000000000000, 0.000000000000000000, -0.000000000000000000 ) ) ;
#232 = DIRECTION ( 'NONE',  ( -0.000000000000000000, -0.000000000000000000, -1.000000000000000000 ) ) ;
#233 = CALENDAR_DATE ( 2022, 20, 6 ) ;
#234 = CC_DESIGN_APPROVAL ( #43, ( #21 ) ) ;
#235 = FACE_OUTER_BOUND ( 'NONE', #112, .T. ) ;
#236 = CARTESIAN_POINT ( 'NONE',  ( 6.000000000000000888, 7.347880794884120722E-16, 5.000000000000000000 ) ) ;
#237 = CIRCLE ( 'NONE', #111, 3.949999999999999734 ) ;
#238 = CARTESIAN_POINT ( 'NONE',  ( 0.000000000000000000, 0.000000000000000000, 0.000000000000000000 ) ) ;
#239 = CARTESIAN_POINT ( 'NONE',  ( 6.000000000000000888, 7.347880794884120722E-16, 5.000000000000000000 ) ) ;
#240 = ADVANCED_FACE ( 'NONE', ( #12 ), #252, .T. ) ;
#241 = ORIENTED_EDGE ( 'NONE', *, *, #216, .F. ) ;
#242 = LOCAL_TIME ( 11, 50, 58.00000000000000000, #73 ) ;
#243 =( NAMED_UNIT ( * ) SI_UNIT ( $, .STERADIAN. ) SOLID_ANGLE_UNIT ( ) );
#244 = ORIENTED_EDGE ( 'NONE', *, *, #8, .F. ) ;
#245 = DIRECTION ( 'NONE',  ( -0.000000000000000000, -0.000000000000000000, -1.000000000000000000 ) ) ;
#246 = ORIENTED_EDGE ( 'NONE', *, *, #70, .F. ) ;
#247 = DIRECTION ( 'NONE',  ( -0.000000000000000000, -0.000000000000000000, -1.000000000000000000 ) ) ;
#248 = ORIENTED_EDGE ( 'NONE', *, *, #70, .T. ) ;
#249 = DIRECTION ( 'NONE',  ( -0.000000000000000000, -0.000000000000000000, -1.000000000000000000 ) ) ;
#250 = CC_DESIGN_APPROVAL ( #172, ( #79 ) ) ;
#251 = ORIENTED_EDGE ( 'NONE', *, *, #3, .T. ) ;
#252 = CYLINDRICAL_SURFACE ( 'NONE', #2, 3.750000000000000000 ) ;
#253 = CARTESIAN_POINT ( 'NONE',  ( -3.949999999999999734, 4.837354856632044071E-16, 5.200000000000009948 ) ) ;
#254 = FACE_OUTER_BOUND ( 'NONE', #221, .T. ) ;
#255 = DESIGN_CONTEXT ( 'detailed design', #81, 'design' ) ;
#256 = ADVANCED_FACE ( 'NONE', ( #129 ), #113, .T. ) ;
#257 = CALENDAR_DATE ( 2022, 20, 6 ) ;
#258 = DATE_AND_TIME ( #185, #160 ) ;
#259 = CARTESIAN_POINT ( 'NONE',  ( 3.750000000000000000, 4.592425496802573972E-16, 205.0000000000000284 ) ) ;
#260 = PERSON_AND_ORGANIZATION ( #106, #89 ) ;
#261 = CIRCLE ( 'NONE', #105, 3.750000000000000000 ) ;
#262 = CC_DESIGN_PERSON_AND_ORGANIZATION_ASSIGNMENT ( #114, #44, ( #21 ) ) ;
#263 = CARTESIAN_POINT ( 'NONE',  ( -3.750000000000000000, 0.000000000000000000, 5.200000000000009948 ) ) ;
#264 = EDGE_CURVE ( 'NONE', #6, #56, #261, .T. ) ;
#265 = EDGE_LOOP ( 'NONE', ( #38, #84, #64, #13 ) ) ;
#266 = DIRECTION ( 'NONE',  ( 1.000000000000000000, 0.000000000000000000, 0.000000000000000000 ) ) ;
#267 = PRODUCT_DEFINITION_SHAPE ( 'NONE', 'NONE',  #79 ) ;
#268 = ORIENTED_EDGE ( 'NONE', *, *, #125, .T. ) ;
#269 = AXIS2_PLACEMENT_3D ( 'NONE', #139, #55, #212 ) ;
#270 = CARTESIAN_POINT ( 'NONE',  ( 0.000000000000000000, 0.000000000000000000, 5.000000000000000000 ) ) ;
#271 = EDGE_LOOP ( 'NONE', ( #241, #248, #107, #244 ) ) ;
#272 = DIRECTION ( 'NONE',  ( -1.000000000000000000, 0.000000000000000000, 0.000000000000000000 ) ) ;
#273 = ORIENTED_EDGE ( 'NONE', *, *, #195, .T. ) ;
#274 = DIRECTION ( 'NONE',  ( -1.000000000000000000, 0.000000000000000000, 0.000000000000000000 ) ) ;
#275 = EDGE_LOOP ( 'NONE', ( #177, #59, #131, #34 ) ) ;
#276 = CARTESIAN_POINT ( 'NONE',  ( 0.000000000000000000, 0.000000000000000000, 0.000000000000000000 ) ) ;
#277 = CIRCLE ( 'NONE', #148, 3.949999999999999734 ) ;
#278 = EDGE_CURVE ( 'NONE', #192, #134, #35, .T. ) ;
#279 = ORIENTED_EDGE ( 'NONE', *, *, #145, .F. ) ;
#280 = COORDINATED_UNIVERSAL_TIME_OFFSET ( 1, 0, .AHEAD. ) ;
#281 = ORIENTED_EDGE ( 'NONE', *, *, #8, .T. ) ;
#282 = COORDINATED_UNIVERSAL_TIME_OFFSET ( 1, 0, .AHEAD. ) ;
#283 = DIRECTION ( 'NONE',  ( 1.000000000000000000, 0.000000000000000000, 0.000000000000000000 ) ) ;
#284 = EDGE_CURVE ( 'NONE', #209, #300, #237, .T. ) ;
#285 = APPROVAL_STATUS ( 'not_yet_approved' ) ;
#286 = DIRECTION ( 'NONE',  ( 1.000000000000000000, 0.000000000000000000, 0.000000000000000000 ) ) ;
#287 = APPROVAL_DATE_TIME ( #144, #172 ) ;
#288 = AXIS2_PLACEMENT_3D ( 'NONE', #253, #118, #169 ) ;
#289 = CARTESIAN_POINT ( 'NONE',  ( 0.000000000000000000, 0.000000000000000000, 5.000000000000000000 ) ) ;
#290 = DIRECTION ( 'NONE',  ( 1.000000000000000000, 0.000000000000000000, -0.000000000000000000 ) ) ;
#291 = TOROIDAL_SURFACE ( 'NONE', #152, 3.949999999999999734, 0.2000000000000000111 ) ;
#292 = EDGE_CURVE ( 'NONE', #153, #192, #31, .T. ) ;
#293 = DIRECTION ( 'NONE',  ( -0.000000000000000000, -0.000000000000000000, -1.000000000000000000 ) ) ;
#294 = ORIENTED_EDGE ( 'NONE', *, *, #216, .T. ) ;
#295 = CARTESIAN_POINT ( 'NONE',  ( 0.000000000000000000, 0.000000000000000000, 205.0000000000000284 ) ) ;
#296 = CC_DESIGN_DATE_AND_TIME_ASSIGNMENT ( #230, #17, ( #301 ) ) ;
#297 = AXIS2_PLACEMENT_3D ( 'NONE', #93, #72, #283 ) ;
#298 = CARTESIAN_POINT ( 'NONE',  ( -6.000000000000000888, 0.000000000000000000, 5.000000000000000000 ) ) ;
#299 = CARTESIAN_POINT ( 'NONE',  ( -6.000000000000000888, 0.000000000000000000, 0.000000000000000000 ) ) ;
#300 = VERTEX_POINT ( 'NONE', #132 ) ;
#301 = SECURITY_CLASSIFICATION ( '', '', #41 ) ;
#302 = DIRECTION ( 'NONE',  ( 0.000000000000000000, 0.000000000000000000, 1.000000000000000000 ) ) ;
#303 = COORDINATED_UNIVERSAL_TIME_OFFSET ( 1, 0, .AHEAD. ) ;
#304 = CARTESIAN_POINT ( 'NONE',  ( -3.750000000000000000, 0.000000000000000000, 205.0000000000000284 ) ) ;
#305 = CALENDAR_DATE ( 2022, 20, 6 ) ;
#306 = PERSON_AND_ORGANIZATION_ROLE ( 'design_owner' ) ;
#307 = CARTESIAN_POINT ( 'NONE',  ( 0.000000000000000000, 0.000000000000000000, 205.0000000000000284 ) ) ;
ENDSEC;
END-ISO-10303-21;
