ISO-10303-21;
HEADER;
FILE_DESCRIPTION (( 'STEP AP203' ),
    '1' );
FILE_NAME ('c647.STEP',
    '2022-06-20T10:09:41',
    ( '' ),
    ( '' ),
    'SwSTEP 2.0',
    'SolidWorks 2019',
    '' );
FILE_SCHEMA (( 'CONFIG_CONTROL_DESIGN' ));
ENDSEC;

DATA;
#1 = VERTEX_POINT ( 'NONE', #67 ) ;
#2 = CC_DESIGN_PERSON_AND_ORGANIZATION_ASSIGNMENT ( #48, #277, ( #298 ) ) ;
#3 = AXIS2_PLACEMENT_3D ( 'NONE', #50, #173, #127 ) ;
#4 = DIRECTION ( 'NONE',  ( 0.000000000000000000, 0.000000000000000000, 1.000000000000000000 ) ) ;
#5 = DIRECTION ( 'NONE',  ( -0.000000000000000000, -0.000000000000000000, -1.000000000000000000 ) ) ;
#6 = AXIS2_PLACEMENT_3D ( 'NONE', #101, #151, #243 ) ;
#7 = APPLICATION_CONTEXT ( 'configuration controlled 3d designs of mechanical parts and assemblies' ) ;
#8 = CARTESIAN_POINT ( 'NONE',  ( 0.000000000000000000, 0.000000000000000000, 3.000000000000000000 ) ) ;
#9 = CARTESIAN_POINT ( 'NONE',  ( 0.000000000000000000, 0.000000000000000000, 3.200000000000008171 ) ) ;
#10 = CARTESIAN_POINT ( 'NONE',  ( 2.200000000000000178, 0.000000000000000000, 3.200000000000008171 ) ) ;
#11 = LOCAL_TIME ( 12, 9, 41.00000000000000000, #183 ) ;
#12 = PERSON_AND_ORGANIZATION ( #225, #193 ) ;
#13 = MECHANICAL_CONTEXT ( 'NONE', #7, 'mechanical' ) ;
#14 = DIRECTION ( 'NONE',  ( 0.000000000000000000, 0.000000000000000000, 1.000000000000000000 ) ) ;
#15 = LINE ( 'NONE', #276, #180 ) ;
#16 =( GEOMETRIC_REPRESENTATION_CONTEXT ( 3 ) GLOBAL_UNCERTAINTY_ASSIGNED_CONTEXT ( ( #88 ) ) GLOBAL_UNIT_ASSIGNED_CONTEXT ( ( #63, #209, #58 ) ) REPRESENTATION_CONTEXT ( 'NONE', 'WORKASPACE' ) );
#17 = DIRECTION ( 'NONE',  ( -0.000000000000000000, -0.000000000000000000, -1.000000000000000000 ) ) ;
#18 = COORDINATED_UNIVERSAL_TIME_OFFSET ( 1, 0, .AHEAD. ) ;
#19 = LINE ( 'NONE', #92, #295 ) ;
#20 = EDGE_LOOP ( 'NONE', ( #253, #71, #238, #26 ) ) ;
#21 = APPROVAL ( #89, 'NEURÈENÝ' ) ;
#22 = DATE_AND_TIME ( #137, #165 ) ;
#23 = ORIENTED_EDGE ( 'NONE', *, *, #80, .F. ) ;
#24 = ORIENTED_EDGE ( 'NONE', *, *, #113, .F. ) ;
#25 = CC_DESIGN_PERSON_AND_ORGANIZATION_ASSIGNMENT ( #111, #305, ( #118 ) ) ;
#26 = ORIENTED_EDGE ( 'NONE', *, *, #251, .F. ) ;
#27 = LOCAL_TIME ( 12, 9, 41.00000000000000000, #18 ) ;
#28 = DIRECTION ( 'NONE',  ( 0.000000000000000000, 0.000000000000000000, 1.000000000000000000 ) ) ;
#29 = AXIS2_PLACEMENT_3D ( 'NONE', #246, #223, #288 ) ;
#30 = CARTESIAN_POINT ( 'NONE',  ( 0.000000000000000000, 0.000000000000000000, 203.0000000000000000 ) ) ;
#31 = CYLINDRICAL_SURFACE ( 'NONE', #255, 2.000000000000000000 ) ;
#32 = DIRECTION ( 'NONE',  ( 0.000000000000000000, -1.000000000000000000, 0.000000000000000000 ) ) ;
#33 = DIRECTION ( 'NONE',  ( -0.000000000000000000, -0.000000000000000000, -1.000000000000000000 ) ) ;
#34 = PRODUCT_DEFINITION ( 'NEZNÁMÝ', '', #298, #93 ) ;
#35 = EDGE_LOOP ( 'NONE', ( #218, #261 ) ) ;
#36 = CARTESIAN_POINT ( 'NONE',  ( 0.000000000000000000, 0.000000000000000000, 203.0000000000000000 ) ) ;
#37 = CARTESIAN_POINT ( 'NONE',  ( -4.000000000000000000, 0.000000000000000000, 0.000000000000000000 ) ) ;
#38 = EDGE_CURVE ( 'NONE', #233, #47, #19, .T. ) ;
#39 = AXIS2_PLACEMENT_3D ( 'NONE', #60, #224, #204 ) ;
#40 = APPROVAL_ROLE ( '' ) ;
#41 = AXIS2_PLACEMENT_3D ( 'NONE', #122, #33, #221 ) ;
#42 = EDGE_LOOP ( 'NONE', ( #147, #74, #23, #119 ) ) ;
#43 = VERTEX_POINT ( 'NONE', #117 ) ;
#44 = PERSON_AND_ORGANIZATION_ROLE ( 'creator' ) ;
#45 = CIRCLE ( 'NONE', #134, 2.200000000000000178 ) ;
#46 = EDGE_LOOP ( 'NONE', ( #145, #169 ) ) ;
#47 = VERTEX_POINT ( 'NONE', #257 ) ;
#48 = PERSON_AND_ORGANIZATION ( #225, #193 ) ;
#49 = EDGE_LOOP ( 'NONE', ( #97, #259, #196, #240 ) ) ;
#50 = CARTESIAN_POINT ( 'NONE',  ( 0.000000000000000000, 0.000000000000000000, 0.000000000000000000 ) ) ;
#51 = CARTESIAN_POINT ( 'NONE',  ( 4.000000000000000000, 4.898587196589412829E-16, 3.000000000000000000 ) ) ;
#52 = CIRCLE ( 'NONE', #279, 4.000000000000000000 ) ;
#53 = DIRECTION ( 'NONE',  ( 0.000000000000000000, 0.000000000000000000, 1.000000000000000000 ) ) ;
#54 = FACE_BOUND ( 'NONE', #35, .T. ) ;
#55 = LOCAL_TIME ( 12, 9, 41.00000000000000000, #162 ) ;
#56 = CARTESIAN_POINT ( 'NONE',  ( 2.000000000000000000, 2.449293598294706414E-16, 3.200000000000008171 ) ) ;
#57 = CC_DESIGN_DATE_AND_TIME_ASSIGNMENT ( #158, #86, ( #118 ) ) ;
#58 =( NAMED_UNIT ( * ) SI_UNIT ( $, .STERADIAN. ) SOLID_ANGLE_UNIT ( ) );
#59 = CIRCLE ( 'NONE', #129, 4.000000000000000000 ) ;
#60 = CARTESIAN_POINT ( 'NONE',  ( 0.000000000000000000, 0.000000000000000000, 203.0000000000000000 ) ) ;
#61 = ORIENTED_EDGE ( 'NONE', *, *, #178, .F. ) ;
#62 = ADVANCED_FACE ( 'NONE', ( #138 ), #304, .F. ) ;
#63 =( LENGTH_UNIT ( ) NAMED_UNIT ( * ) SI_UNIT ( .MILLI., .METRE. ) );
#64 = DIRECTION ( 'NONE',  ( 1.000000000000000000, 0.000000000000000000, 0.000000000000000000 ) ) ;
#65 = COORDINATED_UNIVERSAL_TIME_OFFSET ( 1, 0, .AHEAD. ) ;
#66 = VERTEX_POINT ( 'NONE', #110 ) ;
#67 = CARTESIAN_POINT ( 'NONE',  ( 2.200000000000000178, 0.000000000000000000, 3.000000000000004441 ) ) ;
#68 = DATE_TIME_ROLE ( 'creation_date' ) ;
#69 = DIRECTION ( 'NONE',  ( 1.000000000000000000, 0.000000000000000000, 0.000000000000000000 ) ) ;
#70 = SHAPE_DEFINITION_REPRESENTATION ( #175, #299 ) ;
#71 = ORIENTED_EDGE ( 'NONE', *, *, #190, .F. ) ;
#72 = CC_DESIGN_PERSON_AND_ORGANIZATION_ASSIGNMENT ( #187, #44, ( #298 ) ) ;
#73 = PERSON_AND_ORGANIZATION ( #225, #193 ) ;
#74 = ORIENTED_EDGE ( 'NONE', *, *, #176, .T. ) ;
#75 = CARTESIAN_POINT ( 'NONE',  ( 0.000000000000000000, 0.000000000000000000, 203.0000000000000000 ) ) ;
#76 = CC_DESIGN_PERSON_AND_ORGANIZATION_ASSIGNMENT ( #83, #214, ( #34 ) ) ;
#77 = FACE_OUTER_BOUND ( 'NONE', #236, .T. ) ;
#78 = CARTESIAN_POINT ( 'NONE',  ( 2.000000000000000000, 2.449293598294706414E-16, 203.0000000000000000 ) ) ;
#79 = CARTESIAN_POINT ( 'NONE',  ( 0.000000000000000000, 0.000000000000000000, 3.200000000000008171 ) ) ;
#80 = EDGE_CURVE ( 'NONE', #1, #66, #202, .T. ) ;
#81 = AXIS2_PLACEMENT_3D ( 'NONE', #150, #28, #102 ) ;
#82 = EDGE_CURVE ( 'NONE', #213, #43, #131, .T. ) ;
#83 = PERSON_AND_ORGANIZATION ( #225, #193 ) ;
#84 = CC_DESIGN_APPROVAL ( #186, ( #34 ) ) ;
#85 = CARTESIAN_POINT ( 'NONE',  ( 0.000000000000000000, 0.000000000000000000, 0.000000000000000000 ) ) ;
#86 = DATE_TIME_ROLE ( 'classification_date' ) ;
#87 = CC_DESIGN_PERSON_AND_ORGANIZATION_ASSIGNMENT ( #228, #107, ( #267 ) ) ;
#88 = UNCERTAINTY_MEASURE_WITH_UNIT (LENGTH_MEASURE( 1.000000000000000082E-05 ), #63, 'distance_accuracy_value', 'NONE');
#89 = APPROVAL_STATUS ( 'not_yet_approved' ) ;
#90 = ORIENTED_EDGE ( 'NONE', *, *, #82, .F. ) ;
#91 = CIRCLE ( 'NONE', #242, 0.2000000000000000944 ) ;
#92 = CARTESIAN_POINT ( 'NONE',  ( -2.000000000000000000, 0.000000000000000000, 203.0000000000000000 ) ) ;
#93 = DESIGN_CONTEXT ( 'detailed design', #116, 'design' ) ;
#94 = ADVANCED_FACE ( 'NONE', ( #77 ), #104, .T. ) ;
#95 = VERTEX_POINT ( 'NONE', #78 ) ;
#96 = ORIENTED_EDGE ( 'NONE', *, *, #237, .F. ) ;
#97 = ORIENTED_EDGE ( 'NONE', *, *, #300, .F. ) ;
#98 = CARTESIAN_POINT ( 'NONE',  ( -2.200000000000000178, 2.694222958124177006E-16, 3.200000000000008171 ) ) ;
#99 = DIRECTION ( 'NONE',  ( -1.000000000000000000, 0.000000000000000000, 0.000000000000000000 ) ) ;
#100 = APPROVAL_PERSON_ORGANIZATION ( #212, #291, #239 ) ;
#101 = CARTESIAN_POINT ( 'NONE',  ( 0.000000000000000000, 0.000000000000000000, 0.000000000000000000 ) ) ;
#102 = DIRECTION ( 'NONE',  ( 1.000000000000000000, 0.000000000000000000, 0.000000000000000000 ) ) ;
#103 = ADVANCED_FACE ( 'NONE', ( #266 ), #252, .F. ) ;
#104 = CYLINDRICAL_SURFACE ( 'NONE', #41, 4.000000000000000000 ) ;
#105 = DIRECTION ( 'NONE',  ( -1.000000000000000000, 0.000000000000000000, 0.000000000000000000 ) ) ;
#106 = APPROVAL_DATE_TIME ( #296, #186 ) ;
#107 = PERSON_AND_ORGANIZATION_ROLE ( 'design_owner' ) ;
#108 = DIRECTION ( 'NONE',  ( 1.000000000000000000, 0.000000000000000000, 0.000000000000000000 ) ) ;
#109 = EDGE_CURVE ( 'NONE', #233, #95, #160, .T. ) ;
#110 = CARTESIAN_POINT ( 'NONE',  ( -2.200000000000000178, 2.694222958124177006E-16, 3.000000000000004441 ) ) ;
#111 = PERSON_AND_ORGANIZATION ( #225, #193 ) ;
#112 = EDGE_LOOP ( 'NONE', ( #303, #139 ) ) ;
#113 = EDGE_CURVE ( 'NONE', #163, #278, #52, .T. ) ;
#114 = APPROVAL_DATE_TIME ( #22, #291 ) ;
#115 = ORIENTED_EDGE ( 'NONE', *, *, #244, .F. ) ;
#116 = APPLICATION_CONTEXT ( 'configuration controlled 3d designs of mechanical parts and assemblies' ) ;
#117 = CARTESIAN_POINT ( 'NONE',  ( 4.000000000000000000, 4.898587196589412829E-16, 0.000000000000000000 ) ) ;
#118 = SECURITY_CLASSIFICATION ( '', '', #231 ) ;
#119 = ORIENTED_EDGE ( 'NONE', *, *, #144, .F. ) ;
#120 = DIRECTION ( 'NONE',  ( -1.000000000000000000, 0.000000000000000000, 0.000000000000000000 ) ) ;
#121 = ADVANCED_FACE ( 'NONE', ( #177 ), #153, .T. ) ;
#122 = CARTESIAN_POINT ( 'NONE',  ( 0.000000000000000000, 0.000000000000000000, 3.000000000000000000 ) ) ;
#123 = LINE ( 'NONE', #51, #292 ) ;
#124 = CC_DESIGN_DATE_AND_TIME_ASSIGNMENT ( #258, #68, ( #34 ) ) ;
#125 = DIRECTION ( 'NONE',  ( -0.000000000000000000, -0.000000000000000000, -1.000000000000000000 ) ) ;
#126 = AXIS2_PLACEMENT_3D ( 'NONE', #210, #280, #69 ) ;
#127 = DIRECTION ( 'NONE',  ( 1.000000000000000000, 0.000000000000000000, 0.000000000000000000 ) ) ;
#128 = APPLICATION_PROTOCOL_DEFINITION ( 'international standard', 'config_control_design', 1994, #7 ) ;
#129 = AXIS2_PLACEMENT_3D ( 'NONE', #132, #185, #108 ) ;
#130 = DIRECTION ( 'NONE',  ( -0.000000000000000000, -0.000000000000000000, -1.000000000000000000 ) ) ;
#131 = CIRCLE ( 'NONE', #3, 4.000000000000000000 ) ;
#132 = CARTESIAN_POINT ( 'NONE',  ( 0.000000000000000000, 0.000000000000000000, 3.000000000000000000 ) ) ;
#133 = CARTESIAN_POINT ( 'NONE',  ( 0.000000000000000000, 0.000000000000000000, 3.000000000000000000 ) ) ;
#134 = AXIS2_PLACEMENT_3D ( 'NONE', #133, #274, #64 ) ;
#135 = CARTESIAN_POINT ( 'NONE',  ( 2.000000000000000000, 2.449293598294706414E-16, 203.0000000000000000 ) ) ;
#136 = AXIS2_PLACEMENT_3D ( 'NONE', #192, #191, #232 ) ;
#137 = CALENDAR_DATE ( 2022, 20, 6 ) ;
#138 = FACE_OUTER_BOUND ( 'NONE', #256, .T. ) ;
#139 = ORIENTED_EDGE ( 'NONE', *, *, #237, .T. ) ;
#140 = ADVANCED_FACE ( 'NONE', ( #54, #199 ), #245, .T. ) ;
#141 = AXIS2_PLACEMENT_3D ( 'NONE', #75, #156, #184 ) ;
#142 = APPROVAL_DATE_TIME ( #168, #21 ) ;
#143 = ORIENTED_EDGE ( 'NONE', *, *, #178, .T. ) ;
#144 = EDGE_CURVE ( 'NONE', #167, #1, #91, .T. ) ;
#145 = ORIENTED_EDGE ( 'NONE', *, *, #109, .T. ) ;
#146 = CALENDAR_DATE ( 2022, 20, 6 ) ;
#147 = ORIENTED_EDGE ( 'NONE', *, *, #170, .F. ) ;
#148 = TOROIDAL_SURFACE ( 'NONE', #188, 2.200000000000000178, 0.2000000000000000111 ) ;
#149 = FACE_OUTER_BOUND ( 'NONE', #20, .T. ) ;
#150 = CARTESIAN_POINT ( 'NONE',  ( 0.000000000000000000, 0.000000000000000000, 3.200000000000008171 ) ) ;
#151 = DIRECTION ( 'NONE',  ( 0.000000000000000000, 0.000000000000000000, 1.000000000000000000 ) ) ;
#152 = ADVANCED_FACE ( 'NONE', ( #149 ), #148, .F. ) ;
#153 = CYLINDRICAL_SURFACE ( 'NONE', #206, 4.000000000000000000 ) ;
#154 = DIRECTION ( 'NONE',  ( 0.000000000000000000, 0.000000000000000000, 1.000000000000000000 ) ) ;
#155 = CYLINDRICAL_SURFACE ( 'NONE', #157, 2.000000000000000000 ) ;
#156 = DIRECTION ( 'NONE',  ( 0.000000000000000000, 0.000000000000000000, 1.000000000000000000 ) ) ;
#157 = AXIS2_PLACEMENT_3D ( 'NONE', #36, #130, #105 ) ;
#158 = DATE_AND_TIME ( #281, #27 ) ;
#159 = ORIENTED_EDGE ( 'NONE', *, *, #109, .F. ) ;
#160 = CIRCLE ( 'NONE', #181, 2.000000000000000000 ) ;
#161 = DIRECTION ( 'NONE',  ( -0.000000000000000000, -0.000000000000000000, -1.000000000000000000 ) ) ;
#162 = COORDINATED_UNIVERSAL_TIME_OFFSET ( 1, 0, .AHEAD. ) ;
#163 = VERTEX_POINT ( 'NONE', #271 ) ;
#164 = ADVANCED_FACE ( 'NONE', ( #220 ), #31, .T. ) ;
#165 = LOCAL_TIME ( 12, 9, 41.00000000000000000, #65 ) ;
#166 = COORDINATED_UNIVERSAL_TIME_OFFSET ( 1, 0, .AHEAD. ) ;
#167 = VERTEX_POINT ( 'NONE', #56 ) ;
#168 = DATE_AND_TIME ( #262, #55 ) ;
#169 = ORIENTED_EDGE ( 'NONE', *, *, #300, .T. ) ;
#170 = EDGE_CURVE ( 'NONE', #47, #167, #293, .T. ) ;
#171 = DIRECTION ( 'NONE',  ( 1.000000000000000000, 0.000000000000000000, 0.000000000000000000 ) ) ;
#172 = APPROVAL_PERSON_ORGANIZATION ( #73, #21, #40 ) ;
#173 = DIRECTION ( 'NONE',  ( 0.000000000000000000, 0.000000000000000000, 1.000000000000000000 ) ) ;
#174 = CARTESIAN_POINT ( 'NONE',  ( 0.000000000000000000, 0.000000000000000000, 203.0000000000000000 ) ) ;
#175 = PRODUCT_DEFINITION_SHAPE ( 'NONE', 'NONE',  #34 ) ;
#176 = EDGE_CURVE ( 'NONE', #47, #66, #208, .T. ) ;
#177 = FACE_OUTER_BOUND ( 'NONE', #189, .T. ) ;
#178 = EDGE_CURVE ( 'NONE', #43, #213, #307, .T. ) ;
#179 = DIRECTION ( 'NONE',  ( 1.000000000000000000, 0.000000000000000000, 0.000000000000000000 ) ) ;
#180 = VECTOR ( 'NONE', #230, 1000.000000000000000 ) ;
#181 = AXIS2_PLACEMENT_3D ( 'NONE', #30, #203, #290 ) ;
#182 = EDGE_CURVE ( 'NONE', #278, #43, #123, .T. ) ;
#183 = COORDINATED_UNIVERSAL_TIME_OFFSET ( 1, 0, .AHEAD. ) ;
#184 = DIRECTION ( 'NONE',  ( 1.000000000000000000, 0.000000000000000000, -0.000000000000000000 ) ) ;
#185 = DIRECTION ( 'NONE',  ( 0.000000000000000000, 0.000000000000000000, 1.000000000000000000 ) ) ;
#186 = APPROVAL ( #226, 'NEURÈENÝ' ) ;
#187 = PERSON_AND_ORGANIZATION ( #225, #193 ) ;
#188 = AXIS2_PLACEMENT_3D ( 'NONE', #79, #241, #179 ) ;
#189 = EDGE_LOOP ( 'NONE', ( #96, #302, #143, #282 ) ) ;
#190 = EDGE_CURVE ( 'NONE', #167, #47, #229, .T. ) ;
#191 = DIRECTION ( 'NONE',  ( 0.000000000000000000, 0.000000000000000000, 1.000000000000000000 ) ) ;
#192 = CARTESIAN_POINT ( 'NONE',  ( 0.000000000000000000, 0.000000000000000000, 0.000000000000000000 ) ) ;
#193 = ORGANIZATION ( 'NEURÈENÝ', 'NEURÈENÝ', '' ) ;
#194 = ORIENTED_EDGE ( 'NONE', *, *, #82, .T. ) ;
#195 = ADVANCED_FACE ( 'NONE', ( #197 ), #287, .T. ) ;
#196 = ORIENTED_EDGE ( 'NONE', *, *, #190, .T. ) ;
#197 = FACE_OUTER_BOUND ( 'NONE', #46, .T. ) ;
#198 = AXIS2_PLACEMENT_3D ( 'NONE', #219, #4, #201 ) ;
#199 = FACE_OUTER_BOUND ( 'NONE', #112, .T. ) ;
#200 = PRODUCT_RELATED_PRODUCT_CATEGORY ( 'detail', '', ( #267 ) ) ;
#201 = DIRECTION ( 'NONE',  ( 1.000000000000000000, 0.000000000000000000, 0.000000000000000000 ) ) ;
#202 = CIRCLE ( 'NONE', #126, 2.200000000000000178 ) ;
#203 = DIRECTION ( 'NONE',  ( 0.000000000000000000, 0.000000000000000000, 1.000000000000000000 ) ) ;
#204 = DIRECTION ( 'NONE',  ( 1.000000000000000000, 0.000000000000000000, 0.000000000000000000 ) ) ;
#205 = CC_DESIGN_SECURITY_CLASSIFICATION ( #118, ( #298 ) ) ;
#206 = AXIS2_PLACEMENT_3D ( 'NONE', #286, #5, #99 ) ;
#207 = ADVANCED_FACE ( 'NONE', ( #254 ), #155, .T. ) ;
#208 = CIRCLE ( 'NONE', #270, 0.2000000000000000944 ) ;
#209 =( NAMED_UNIT ( * ) PLANE_ANGLE_UNIT ( ) SI_UNIT ( $, .RADIAN. ) );
#210 = CARTESIAN_POINT ( 'NONE',  ( 0.000000000000000000, 0.000000000000000000, 3.000000000000000000 ) ) ;
#211 = LOCAL_TIME ( 12, 9, 41.00000000000000000, #166 ) ;
#212 = PERSON_AND_ORGANIZATION ( #225, #193 ) ;
#213 = VERTEX_POINT ( 'NONE', #37 ) ;
#214 = PERSON_AND_ORGANIZATION_ROLE ( 'creator' ) ;
#215 = EDGE_LOOP ( 'NONE', ( #115, #159, #306, #216 ) ) ;
#216 = ORIENTED_EDGE ( 'NONE', *, *, #170, .T. ) ;
#217 = AXIS2_PLACEMENT_3D ( 'NONE', #85, #14, #248 ) ;
#218 = ORIENTED_EDGE ( 'NONE', *, *, #80, .T. ) ;
#219 = CARTESIAN_POINT ( 'NONE',  ( 0.000000000000000000, 0.000000000000000000, 3.200000000000008171 ) ) ;
#220 = FACE_OUTER_BOUND ( 'NONE', #215, .T. ) ;
#221 = DIRECTION ( 'NONE',  ( -1.000000000000000000, 0.000000000000000000, 0.000000000000000000 ) ) ;
#222 = MANIFOLD_SOLID_BREP ( 'Zaoblit1', #285 ) ;
#223 = DIRECTION ( 'NONE',  ( 0.000000000000000000, 0.000000000000000000, 1.000000000000000000 ) ) ;
#224 = DIRECTION ( 'NONE',  ( 0.000000000000000000, 0.000000000000000000, 1.000000000000000000 ) ) ;
#225 = PERSON ( 'NEURÈENÝ', 'NEURÈENÝ', 'NEURÈENÝ', ('NEURÈENÝ'), ('NEURÈENÝ'), ('NEURÈENÝ') ) ;
#226 = APPROVAL_STATUS ( 'not_yet_approved' ) ;
#227 = EDGE_CURVE ( 'NONE', #163, #213, #15, .T. ) ;
#228 = PERSON_AND_ORGANIZATION ( #225, #193 ) ;
#229 = CIRCLE ( 'NONE', #250, 2.000000000000000000 ) ;
#230 = DIRECTION ( 'NONE',  ( -0.000000000000000000, -0.000000000000000000, -1.000000000000000000 ) ) ;
#231 = SECURITY_CLASSIFICATION_LEVEL ( 'unclassified' ) ;
#232 = DIRECTION ( 'NONE',  ( 1.000000000000000000, 0.000000000000000000, -0.000000000000000000 ) ) ;
#233 = VERTEX_POINT ( 'NONE', #275 ) ;
#234 = CC_DESIGN_APPROVAL ( #21, ( #298 ) ) ;
#235 = APPROVAL_STATUS ( 'not_yet_approved' ) ;
#236 = EDGE_LOOP ( 'NONE', ( #263, #24, #284, #194 ) ) ;
#237 = EDGE_CURVE ( 'NONE', #278, #163, #59, .T. ) ;
#238 = ORIENTED_EDGE ( 'NONE', *, *, #144, .T. ) ;
#239 = APPROVAL_ROLE ( '' ) ;
#240 = ORIENTED_EDGE ( 'NONE', *, *, #38, .F. ) ;
#241 = DIRECTION ( 'NONE',  ( 0.000000000000000000, 0.000000000000000000, 1.000000000000000000 ) ) ;
#242 = AXIS2_PLACEMENT_3D ( 'NONE', #10, #32, #264 ) ;
#243 = DIRECTION ( 'NONE',  ( 1.000000000000000000, 0.000000000000000000, 0.000000000000000000 ) ) ;
#244 = EDGE_CURVE ( 'NONE', #95, #167, #272, .T. ) ;
#245 = PLANE ( 'NONE',  #29 ) ;
#246 = CARTESIAN_POINT ( 'NONE',  ( 0.000000000000000000, 0.000000000000000000, 3.000000000000000000 ) ) ;
#247 = DIRECTION ( 'NONE',  ( 1.000000000000000000, 0.000000000000000000, 0.000000000000000000 ) ) ;
#248 = DIRECTION ( 'NONE',  ( 1.000000000000000000, 0.000000000000000000, 0.000000000000000000 ) ) ;
#249 = APPLICATION_PROTOCOL_DEFINITION ( 'international standard', 'config_control_design', 1994, #116 ) ;
#250 = AXIS2_PLACEMENT_3D ( 'NONE', #9, #154, #247 ) ;
#251 = EDGE_CURVE ( 'NONE', #66, #1, #45, .T. ) ;
#252 = TOROIDAL_SURFACE ( 'NONE', #81, 2.200000000000000178, 0.2000000000000000111 ) ;
#253 = ORIENTED_EDGE ( 'NONE', *, *, #176, .F. ) ;
#254 = FACE_OUTER_BOUND ( 'NONE', #49, .T. ) ;
#255 = AXIS2_PLACEMENT_3D ( 'NONE', #174, #125, #120 ) ;
#256 = EDGE_LOOP ( 'NONE', ( #90, #61 ) ) ;
#257 = CARTESIAN_POINT ( 'NONE',  ( -2.000000000000000000, 0.000000000000000000, 3.200000000000008171 ) ) ;
#258 = DATE_AND_TIME ( #146, #211 ) ;
#259 = ORIENTED_EDGE ( 'NONE', *, *, #244, .T. ) ;
#260 = CC_DESIGN_APPROVAL ( #291, ( #118 ) ) ;
#261 = ORIENTED_EDGE ( 'NONE', *, *, #251, .T. ) ;
#262 = CALENDAR_DATE ( 2022, 20, 6 ) ;
#263 = ORIENTED_EDGE ( 'NONE', *, *, #182, .F. ) ;
#264 = DIRECTION ( 'NONE',  ( 0.000000000000000000, 0.000000000000000000, -1.000000000000000000 ) ) ;
#265 = APPROVAL_PERSON_ORGANIZATION ( #12, #186, #294 ) ;
#266 = FACE_OUTER_BOUND ( 'NONE', #42, .T. ) ;
#267 = PRODUCT ( 'c647', 'c647', '', ( #13 ) ) ;
#268 = DIRECTION ( 'NONE',  ( 1.224646799147353207E-16, 1.000000000000000000, -0.000000000000000000 ) ) ;
#269 = DIRECTION ( 'NONE',  ( -1.000000000000000000, 1.224646799147353207E-16, 0.000000000000000000 ) ) ;
#270 = AXIS2_PLACEMENT_3D ( 'NONE', #98, #268, #269 ) ;
#271 = CARTESIAN_POINT ( 'NONE',  ( -4.000000000000000000, 0.000000000000000000, 3.000000000000000000 ) ) ;
#272 = LINE ( 'NONE', #135, #301 ) ;
#273 = CALENDAR_DATE ( 2022, 20, 6 ) ;
#274 = DIRECTION ( 'NONE',  ( -0.000000000000000000, -0.000000000000000000, -1.000000000000000000 ) ) ;
#275 = CARTESIAN_POINT ( 'NONE',  ( -2.000000000000000000, 0.000000000000000000, 203.0000000000000000 ) ) ;
#276 = CARTESIAN_POINT ( 'NONE',  ( -4.000000000000000000, 0.000000000000000000, 3.000000000000000000 ) ) ;
#277 = PERSON_AND_ORGANIZATION_ROLE ( 'design_supplier' ) ;
#278 = VERTEX_POINT ( 'NONE', #297 ) ;
#279 = AXIS2_PLACEMENT_3D ( 'NONE', #8, #53, #171 ) ;
#280 = DIRECTION ( 'NONE',  ( -0.000000000000000000, -0.000000000000000000, -1.000000000000000000 ) ) ;
#281 = CALENDAR_DATE ( 2022, 20, 6 ) ;
#282 = ORIENTED_EDGE ( 'NONE', *, *, #227, .F. ) ;
#283 = CIRCLE ( 'NONE', #39, 2.000000000000000000 ) ;
#284 = ORIENTED_EDGE ( 'NONE', *, *, #227, .T. ) ;
#285 = CLOSED_SHELL ( 'NONE', ( #103, #207, #121, #94, #140, #62, #164, #195, #152 ) ) ;
#286 = CARTESIAN_POINT ( 'NONE',  ( 0.000000000000000000, 0.000000000000000000, 3.000000000000000000 ) ) ;
#287 = PLANE ( 'NONE',  #141 ) ;
#288 = DIRECTION ( 'NONE',  ( 1.000000000000000000, 0.000000000000000000, -0.000000000000000000 ) ) ;
#289 = DIRECTION ( 'NONE',  ( -0.000000000000000000, -0.000000000000000000, -1.000000000000000000 ) ) ;
#290 = DIRECTION ( 'NONE',  ( 1.000000000000000000, 0.000000000000000000, 0.000000000000000000 ) ) ;
#291 = APPROVAL ( #235, 'NEURÈENÝ' ) ;
#292 = VECTOR ( 'NONE', #289, 1000.000000000000000 ) ;
#293 = CIRCLE ( 'NONE', #198, 2.000000000000000000 ) ;
#294 = APPROVAL_ROLE ( '' ) ;
#295 = VECTOR ( 'NONE', #161, 1000.000000000000000 ) ;
#296 = DATE_AND_TIME ( #273, #11 ) ;
#297 = CARTESIAN_POINT ( 'NONE',  ( 4.000000000000000000, 4.898587196589412829E-16, 3.000000000000000000 ) ) ;
#298 = PRODUCT_DEFINITION_FORMATION_WITH_SPECIFIED_SOURCE ( 'LIBOVOLNÝ', '', #267, .NOT_KNOWN. ) ;
#299 = ADVANCED_BREP_SHAPE_REPRESENTATION ( 'c647', ( #222, #217 ), #16 ) ;
#300 = EDGE_CURVE ( 'NONE', #95, #233, #283, .T. ) ;
#301 = VECTOR ( 'NONE', #17, 1000.000000000000000 ) ;
#302 = ORIENTED_EDGE ( 'NONE', *, *, #182, .T. ) ;
#303 = ORIENTED_EDGE ( 'NONE', *, *, #113, .T. ) ;
#304 = PLANE ( 'NONE',  #136 ) ;
#305 = PERSON_AND_ORGANIZATION_ROLE ( 'classification_officer' ) ;
#306 = ORIENTED_EDGE ( 'NONE', *, *, #38, .T. ) ;
#307 = CIRCLE ( 'NONE', #6, 4.000000000000000000 ) ;
ENDSEC;
END-ISO-10303-21;
