ISO-10303-21;
HEADER;
FILE_DESCRIPTION (( 'STEP AP203' ),
    '1' );
FILE_NAME ('2a38.STEP',
    '2022-06-20T09:53:28',
    ( '' ),
    ( '' ),
    'SwSTEP 2.0',
    'SolidWorks 2019',
    '' );
FILE_SCHEMA (( 'CONFIG_CONTROL_DESIGN' ));
ENDSEC;

DATA;
#1 = APPROVAL_DATE_TIME ( #213, #186 ) ;
#2 = ORIENTED_EDGE ( 'NONE', *, *, #263, .F. ) ;
#3 =( NAMED_UNIT ( * ) SI_UNIT ( $, .STERADIAN. ) SOLID_ANGLE_UNIT ( ) );
#4 = PERSON_AND_ORGANIZATION ( #272, #89 ) ;
#5 = AXIS2_PLACEMENT_3D ( 'NONE', #238, #138, #140 ) ;
#6 = PRODUCT ( '2a38', '2a38', '', ( #23 ) ) ;
#7 = COORDINATED_UNIVERSAL_TIME_OFFSET ( 1, 0, .AHEAD. ) ;
#8 = ORIENTED_EDGE ( 'NONE', *, *, #113, .F. ) ;
#9 = ADVANCED_FACE ( 'NONE', ( #134 ), #231, .T. ) ;
#10 = EDGE_LOOP ( 'NONE', ( #28, #2, #286, #147 ) ) ;
#11 = DIRECTION ( 'NONE',  ( 1.000000000000000000, 0.000000000000000000, 0.000000000000000000 ) ) ;
#12 = CIRCLE ( 'NONE', #267, 0.2000000000000000944 ) ;
#13 = EDGE_CURVE ( 'NONE', #83, #101, #37, .T. ) ;
#14 = ORIENTED_EDGE ( 'NONE', *, *, #17, .T. ) ;
#15 = DIRECTION ( 'NONE',  ( 0.000000000000000000, 0.000000000000000000, 1.000000000000000000 ) ) ;
#16 = CYLINDRICAL_SURFACE ( 'NONE', #185, 6.000000000000000888 ) ;
#17 = EDGE_CURVE ( 'NONE', #181, #197, #254, .T. ) ;
#18 = CARTESIAN_POINT ( 'NONE',  ( 0.000000000000000000, 0.000000000000000000, 5.000000000000000000 ) ) ;
#19 = CARTESIAN_POINT ( 'NONE',  ( 0.000000000000000000, 0.000000000000000000, 0.000000000000000000 ) ) ;
#20 = APPROVAL_PERSON_ORGANIZATION ( #129, #38, #99 ) ;
#21 = PLANE ( 'NONE',  #222 ) ;
#22 = DIRECTION ( 'NONE',  ( 0.000000000000000000, 0.000000000000000000, 1.000000000000000000 ) ) ;
#23 = MECHANICAL_CONTEXT ( 'NONE', #268, 'mechanical' ) ;
#24 = LOCAL_TIME ( 11, 53, 28.00000000000000000, #149 ) ;
#25 = PERSON_AND_ORGANIZATION ( #272, #89 ) ;
#26 = ORIENTED_EDGE ( 'NONE', *, *, #65, .T. ) ;
#27 = PERSON_AND_ORGANIZATION_ROLE ( 'creator' ) ;
#28 = ORIENTED_EDGE ( 'NONE', *, *, #17, .F. ) ;
#29 = DATE_AND_TIME ( #246, #128 ) ;
#30 = ORIENTED_EDGE ( 'NONE', *, *, #252, .T. ) ;
#31 = CIRCLE ( 'NONE', #158, 3.700000000000000178 ) ;
#32 = EDGE_LOOP ( 'NONE', ( #221, #266 ) ) ;
#33 = CLOSED_SHELL ( 'NONE', ( #143, #215, #165, #122, #296, #209, #232, #9, #157 ) ) ;
#34 = ORIENTED_EDGE ( 'NONE', *, *, #302, .F. ) ;
#35 = CARTESIAN_POINT ( 'NONE',  ( 3.700000000000000178, 0.000000000000000000, 4.999999999999998224 ) ) ;
#36 = DIRECTION ( 'NONE',  ( 0.000000000000000000, 0.000000000000000000, 1.000000000000000000 ) ) ;
#37 = LINE ( 'NONE', #299, #192 ) ;
#38 = APPROVAL ( #75, 'NEURÈENÝ' ) ;
#39 = CIRCLE ( 'NONE', #229, 6.000000000000000888 ) ;
#40 = DIRECTION ( 'NONE',  ( 1.000000000000000000, 0.000000000000000000, 0.000000000000000000 ) ) ;
#41 = CC_DESIGN_PERSON_AND_ORGANIZATION_ASSIGNMENT ( #175, #177, ( #200 ) ) ;
#42 = AXIS2_PLACEMENT_3D ( 'NONE', #199, #88, #292 ) ;
#43 = CYLINDRICAL_SURFACE ( 'NONE', #73, 3.500000000000000000 ) ;
#44 = CARTESIAN_POINT ( 'NONE',  ( 0.000000000000000000, 0.000000000000000000, 0.000000000000000000 ) ) ;
#45 = DIRECTION ( 'NONE',  ( 1.000000000000000000, 0.000000000000000000, 0.000000000000000000 ) ) ;
#46 = LINE ( 'NONE', #187, #180 ) ;
#47 = PERSON_AND_ORGANIZATION_ROLE ( 'design_owner' ) ;
#48 = CARTESIAN_POINT ( 'NONE',  ( 0.000000000000000000, 0.000000000000000000, 0.000000000000000000 ) ) ;
#49 = ORIENTED_EDGE ( 'NONE', *, *, #302, .T. ) ;
#50 = APPLICATION_PROTOCOL_DEFINITION ( 'international standard', 'config_control_design', 1994, #268 ) ;
#51 = VERTEX_POINT ( 'NONE', #35 ) ;
#52 = APPROVAL_STATUS ( 'not_yet_approved' ) ;
#53 = ADVANCED_BREP_SHAPE_REPRESENTATION ( '2a38', ( #121, #214 ), #102 ) ;
#54 = EDGE_LOOP ( 'NONE', ( #276, #155, #49, #127 ) ) ;
#55 = CALENDAR_DATE ( 2022, 20, 6 ) ;
#56 = AXIS2_PLACEMENT_3D ( 'NONE', #168, #172, #93 ) ;
#57 = ORIENTED_EDGE ( 'NONE', *, *, #236, .F. ) ;
#58 = DIRECTION ( 'NONE',  ( -0.000000000000000000, -0.000000000000000000, -1.000000000000000000 ) ) ;
#59 = VECTOR ( 'NONE', #85, 1000.000000000000000 ) ;
#60 = DIRECTION ( 'NONE',  ( -1.000000000000000000, 0.000000000000000000, 0.000000000000000000 ) ) ;
#61 = CARTESIAN_POINT ( 'NONE',  ( -6.000000000000000888, 0.000000000000000000, 5.000000000000000000 ) ) ;
#62 = APPROVAL_PERSON_ORGANIZATION ( #223, #186, #219 ) ;
#63 = DIRECTION ( 'NONE',  ( 0.000000000000000000, 0.000000000000000000, -1.000000000000000000 ) ) ;
#64 = AXIS2_PLACEMENT_3D ( 'NONE', #271, #111, #183 ) ;
#65 = EDGE_CURVE ( 'NONE', #197, #108, #251, .T. ) ;
#66 = ORIENTED_EDGE ( 'NONE', *, *, #179, .T. ) ;
#67 = CC_DESIGN_PERSON_AND_ORGANIZATION_ASSIGNMENT ( #242, #124, ( #176 ) ) ;
#68 = DIRECTION ( 'NONE',  ( 1.000000000000000000, 0.000000000000000000, 0.000000000000000000 ) ) ;
#69 = APPROVAL_PERSON_ORGANIZATION ( #103, #198, #288 ) ;
#70 = CARTESIAN_POINT ( 'NONE',  ( 0.000000000000000000, 0.000000000000000000, 5.000000000000000000 ) ) ;
#71 = DIRECTION ( 'NONE',  ( 0.000000000000000000, 0.000000000000000000, 1.000000000000000000 ) ) ;
#72 = CARTESIAN_POINT ( 'NONE',  ( 0.000000000000000000, 0.000000000000000000, 105.0000000000000142 ) ) ;
#73 = AXIS2_PLACEMENT_3D ( 'NONE', #94, #141, #306 ) ;
#74 = CC_DESIGN_PERSON_AND_ORGANIZATION_ASSIGNMENT ( #100, #27, ( #176 ) ) ;
#75 = APPROVAL_STATUS ( 'not_yet_approved' ) ;
#76 = DATE_AND_TIME ( #244, #24 ) ;
#77 = VERTEX_POINT ( 'NONE', #87 ) ;
#78 = CIRCLE ( 'NONE', #233, 3.500000000000000000 ) ;
#79 = EDGE_CURVE ( 'NONE', #160, #108, #297, .T. ) ;
#80 = COORDINATED_UNIVERSAL_TIME_OFFSET ( 1, 0, .AHEAD. ) ;
#81 = EDGE_LOOP ( 'NONE', ( #150, #234 ) ) ;
#82 = CALENDAR_DATE ( 2022, 20, 6 ) ;
#83 = VERTEX_POINT ( 'NONE', #90 ) ;
#84 = DIRECTION ( 'NONE',  ( -0.000000000000000000, -0.000000000000000000, -1.000000000000000000 ) ) ;
#85 = DIRECTION ( 'NONE',  ( -0.000000000000000000, -0.000000000000000000, -1.000000000000000000 ) ) ;
#86 = AXIS2_PLACEMENT_3D ( 'NONE', #159, #15, #279 ) ;
#87 = CARTESIAN_POINT ( 'NONE',  ( -6.000000000000000888, 0.000000000000000000, 0.000000000000000000 ) ) ;
#88 = DIRECTION ( 'NONE',  ( 0.000000000000000000, 0.000000000000000000, 1.000000000000000000 ) ) ;
#89 = ORGANIZATION ( 'NEURÈENÝ', 'NEURÈENÝ', '' ) ;
#90 = CARTESIAN_POINT ( 'NONE',  ( 6.000000000000000888, 7.347880794884120722E-16, 5.000000000000000000 ) ) ;
#91 = AXIS2_PLACEMENT_3D ( 'NONE', #273, #132, #11 ) ;
#92 = PRODUCT_RELATED_PRODUCT_CATEGORY ( 'detail', '', ( #6 ) ) ;
#93 = DIRECTION ( 'NONE',  ( -1.000000000000000000, 0.000000000000000000, 0.000000000000000000 ) ) ;
#94 = CARTESIAN_POINT ( 'NONE',  ( 0.000000000000000000, 0.000000000000000000, 105.0000000000000142 ) ) ;
#95 = DIRECTION ( 'NONE',  ( -0.000000000000000000, -0.000000000000000000, -1.000000000000000000 ) ) ;
#96 = DIRECTION ( 'NONE',  ( 1.000000000000000000, 0.000000000000000000, 0.000000000000000000 ) ) ;
#97 = CARTESIAN_POINT ( 'NONE',  ( -3.500000000000000000, 0.000000000000000000, 105.0000000000000142 ) ) ;
#98 = PRODUCT_DEFINITION ( 'NEZNÁMÝ', '', #176, #117 ) ;
#99 = APPROVAL_ROLE ( '' ) ;
#100 = PERSON_AND_ORGANIZATION ( #272, #89 ) ;
#101 = VERTEX_POINT ( 'NONE', #135 ) ;
#102 =( GEOMETRIC_REPRESENTATION_CONTEXT ( 3 ) GLOBAL_UNCERTAINTY_ASSIGNED_CONTEXT ( ( #208 ) ) GLOBAL_UNIT_ASSIGNED_CONTEXT ( ( #262, #216, #3 ) ) REPRESENTATION_CONTEXT ( 'NONE', 'WORKASPACE' ) );
#103 = PERSON_AND_ORGANIZATION ( #272, #89 ) ;
#104 = ORIENTED_EDGE ( 'NONE', *, *, #169, .F. ) ;
#105 = CC_DESIGN_DATE_AND_TIME_ASSIGNMENT ( #29, #126, ( #200 ) ) ;
#106 = DATE_AND_TIME ( #82, #278 ) ;
#107 = ORIENTED_EDGE ( 'NONE', *, *, #220, .F. ) ;
#108 = VERTEX_POINT ( 'NONE', #275 ) ;
#109 = CIRCLE ( 'NONE', #283, 6.000000000000000888 ) ;
#110 = FACE_OUTER_BOUND ( 'NONE', #201, .T. ) ;
#111 = DIRECTION ( 'NONE',  ( 0.000000000000000000, 0.000000000000000000, 1.000000000000000000 ) ) ;
#112 = ORIENTED_EDGE ( 'NONE', *, *, #131, .F. ) ;
#113 = EDGE_CURVE ( 'NONE', #108, #197, #161, .T. ) ;
#114 = SHAPE_DEFINITION_REPRESENTATION ( #227, #53 ) ;
#115 = EDGE_LOOP ( 'NONE', ( #8, #30, #107, #112 ) ) ;
#116 = CARTESIAN_POINT ( 'NONE',  ( 3.500000000000000000, 4.286263797015736595E-16, 105.0000000000000142 ) ) ;
#117 = DESIGN_CONTEXT ( 'detailed design', #301, 'design' ) ;
#118 = CARTESIAN_POINT ( 'NONE',  ( -3.700000000000000178, 4.531193156845206201E-16, 4.999999999999998224 ) ) ;
#119 = FACE_OUTER_BOUND ( 'NONE', #295, .T. ) ;
#120 = CYLINDRICAL_SURFACE ( 'NONE', #56, 6.000000000000000888 ) ;
#121 = MANIFOLD_SOLID_BREP ( 'Zaoblit1', #33 ) ;
#122 = ADVANCED_FACE ( 'NONE', ( #110 ), #16, .T. ) ;
#123 = APPLICATION_PROTOCOL_DEFINITION ( 'international standard', 'config_control_design', 1994, #301 ) ;
#124 = PERSON_AND_ORGANIZATION_ROLE ( 'design_supplier' ) ;
#125 = EDGE_CURVE ( 'NONE', #83, #152, #225, .T. ) ;
#126 = DATE_TIME_ROLE ( 'classification_date' ) ;
#127 = ORIENTED_EDGE ( 'NONE', *, *, #205, .F. ) ;
#128 = LOCAL_TIME ( 11, 53, 28.00000000000000000, #287 ) ;
#129 = PERSON_AND_ORGANIZATION ( #272, #89 ) ;
#130 = EDGE_LOOP ( 'NONE', ( #250, #66 ) ) ;
#131 = EDGE_CURVE ( 'NONE', #197, #51, #270, .T. ) ;
#132 = DIRECTION ( 'NONE',  ( 0.000000000000000000, 0.000000000000000000, 1.000000000000000000 ) ) ;
#133 = ORIENTED_EDGE ( 'NONE', *, *, #205, .T. ) ;
#134 = FACE_OUTER_BOUND ( 'NONE', #130, .T. ) ;
#135 = CARTESIAN_POINT ( 'NONE',  ( 6.000000000000000888, 7.347880794884120722E-16, 0.000000000000000000 ) ) ;
#136 = CARTESIAN_POINT ( 'NONE',  ( 3.500000000000000000, 4.286263797015736595E-16, 105.0000000000000142 ) ) ;
#137 = CIRCLE ( 'NONE', #307, 6.000000000000000888 ) ;
#138 = DIRECTION ( 'NONE',  ( 0.000000000000000000, 0.000000000000000000, 1.000000000000000000 ) ) ;
#139 = AXIS2_PLACEMENT_3D ( 'NONE', #156, #294, #63 ) ;
#140 = DIRECTION ( 'NONE',  ( 1.000000000000000000, 0.000000000000000000, 0.000000000000000000 ) ) ;
#141 = DIRECTION ( 'NONE',  ( -0.000000000000000000, -0.000000000000000000, -1.000000000000000000 ) ) ;
#142 = CC_DESIGN_APPROVAL ( #186, ( #176 ) ) ;
#143 = ADVANCED_FACE ( 'NONE', ( #249 ), #218, .F. ) ;
#144 = DIRECTION ( 'NONE',  ( 1.000000000000000000, 0.000000000000000000, -0.000000000000000000 ) ) ;
#145 = DIRECTION ( 'NONE',  ( 1.000000000000000000, 0.000000000000000000, 0.000000000000000000 ) ) ;
#146 = DATE_TIME_ROLE ( 'creation_date' ) ;
#147 = ORIENTED_EDGE ( 'NONE', *, *, #113, .T. ) ;
#148 = LOCAL_TIME ( 11, 53, 28.00000000000000000, #80 ) ;
#149 = COORDINATED_UNIVERSAL_TIME_OFFSET ( 1, 0, .AHEAD. ) ;
#150 = ORIENTED_EDGE ( 'NONE', *, *, #220, .T. ) ;
#151 = DATE_AND_TIME ( #178, #148 ) ;
#152 = VERTEX_POINT ( 'NONE', #61 ) ;
#153 = CC_DESIGN_PERSON_AND_ORGANIZATION_ASSIGNMENT ( #25, #47, ( #6 ) ) ;
#154 = ORIENTED_EDGE ( 'NONE', *, *, #252, .F. ) ;
#155 = ORIENTED_EDGE ( 'NONE', *, *, #13, .T. ) ;
#156 = CARTESIAN_POINT ( 'NONE',  ( 3.700000000000000178, 0.000000000000000000, 5.199999999999996625 ) ) ;
#157 = ADVANCED_FACE ( 'NONE', ( #119 ), #256, .F. ) ;
#158 = AXIS2_PLACEMENT_3D ( 'NONE', #303, #95, #45 ) ;
#159 = CARTESIAN_POINT ( 'NONE',  ( 0.000000000000000000, 0.000000000000000000, 5.199999999999996625 ) ) ;
#160 = VERTEX_POINT ( 'NONE', #97 ) ;
#161 = CIRCLE ( 'NONE', #64, 3.500000000000000000 ) ;
#162 = VERTEX_POINT ( 'NONE', #118 ) ;
#163 = DIRECTION ( 'NONE',  ( -1.000000000000000000, 1.224646799147350742E-16, 0.000000000000000000 ) ) ;
#164 = CC_DESIGN_APPROVAL ( #38, ( #98 ) ) ;
#165 = ADVANCED_FACE ( 'NONE', ( #282 ), #120, .T. ) ;
#166 = CARTESIAN_POINT ( 'NONE',  ( 0.000000000000000000, 0.000000000000000000, 5.000000000000000000 ) ) ;
#167 = AXIS2_PLACEMENT_3D ( 'NONE', #240, #71, #212 ) ;
#168 = CARTESIAN_POINT ( 'NONE',  ( 0.000000000000000000, 0.000000000000000000, 5.000000000000000000 ) ) ;
#169 = EDGE_CURVE ( 'NONE', #152, #83, #137, .T. ) ;
#170 = FACE_OUTER_BOUND ( 'NONE', #202, .T. ) ;
#171 = AXIS2_PLACEMENT_3D ( 'NONE', #239, #304, #207 ) ;
#172 = DIRECTION ( 'NONE',  ( -0.000000000000000000, -0.000000000000000000, -1.000000000000000000 ) ) ;
#173 = APPROVAL_DATE_TIME ( #106, #38 ) ;
#174 = ORIENTED_EDGE ( 'NONE', *, *, #179, .F. ) ;
#175 = PERSON_AND_ORGANIZATION ( #272, #89 ) ;
#176 = PRODUCT_DEFINITION_FORMATION_WITH_SPECIFIED_SOURCE ( 'LIBOVOLNÝ', '', #6, .NOT_KNOWN. ) ;
#177 = PERSON_AND_ORGANIZATION_ROLE ( 'classification_officer' ) ;
#178 = CALENDAR_DATE ( 2022, 20, 6 ) ;
#179 = EDGE_CURVE ( 'NONE', #181, #160, #78, .T. ) ;
#180 = VECTOR ( 'NONE', #210, 1000.000000000000000 ) ;
#181 = VERTEX_POINT ( 'NONE', #116 ) ;
#182 = CARTESIAN_POINT ( 'NONE',  ( -3.500000000000000000, 0.000000000000000000, 105.0000000000000142 ) ) ;
#183 = DIRECTION ( 'NONE',  ( 1.000000000000000000, 0.000000000000000000, 0.000000000000000000 ) ) ;
#184 = DIRECTION ( 'NONE',  ( 1.000000000000000000, 0.000000000000000000, -0.000000000000000000 ) ) ;
#185 = AXIS2_PLACEMENT_3D ( 'NONE', #248, #228, #60 ) ;
#186 = APPROVAL ( #52, 'NEURÈENÝ' ) ;
#187 = CARTESIAN_POINT ( 'NONE',  ( -6.000000000000000888, 0.000000000000000000, 5.000000000000000000 ) ) ;
#188 = FACE_OUTER_BOUND ( 'NONE', #10, .T. ) ;
#189 = CYLINDRICAL_SURFACE ( 'NONE', #171, 3.500000000000000000 ) ;
#190 = DIRECTION ( 'NONE',  ( 1.000000000000000000, 0.000000000000000000, 0.000000000000000000 ) ) ;
#191 = DIRECTION ( 'NONE',  ( -0.000000000000000000, -0.000000000000000000, -1.000000000000000000 ) ) ;
#192 = VECTOR ( 'NONE', #58, 1000.000000000000000 ) ;
#193 = SECURITY_CLASSIFICATION_LEVEL ( 'unclassified' ) ;
#194 = PERSON_AND_ORGANIZATION_ROLE ( 'creator' ) ;
#195 = CC_DESIGN_APPROVAL ( #198, ( #200 ) ) ;
#196 = APPROVAL_STATUS ( 'not_yet_approved' ) ;
#197 = VERTEX_POINT ( 'NONE', #281 ) ;
#198 = APPROVAL ( #196, 'NEURÈENÝ' ) ;
#199 = CARTESIAN_POINT ( 'NONE',  ( 0.000000000000000000, 0.000000000000000000, 5.199999999999996625 ) ) ;
#200 = SECURITY_CLASSIFICATION ( '', '', #193 ) ;
#201 = EDGE_LOOP ( 'NONE', ( #224, #104, #133, #226 ) ) ;
#202 = EDGE_LOOP ( 'NONE', ( #174, #14, #26, #204 ) ) ;
#203 = CIRCLE ( 'NONE', #243, 3.700000000000000178 ) ;
#204 = ORIENTED_EDGE ( 'NONE', *, *, #79, .F. ) ;
#205 = EDGE_CURVE ( 'NONE', #152, #77, #46, .T. ) ;
#206 = DIRECTION ( 'NONE',  ( 1.224646799147353207E-16, 1.000000000000000000, -0.000000000000000000 ) ) ;
#207 = DIRECTION ( 'NONE',  ( -1.000000000000000000, 0.000000000000000000, 0.000000000000000000 ) ) ;
#208 = UNCERTAINTY_MEASURE_WITH_UNIT (LENGTH_MEASURE( 1.000000000000000082E-05 ), #262, 'distance_accuracy_value', 'NONE');
#209 = ADVANCED_FACE ( 'NONE', ( #277 ), #261, .F. ) ;
#210 = DIRECTION ( 'NONE',  ( -0.000000000000000000, -0.000000000000000000, -1.000000000000000000 ) ) ;
#211 = FACE_BOUND ( 'NONE', #81, .T. ) ;
#212 = DIRECTION ( 'NONE',  ( 1.000000000000000000, 0.000000000000000000, 0.000000000000000000 ) ) ;
#213 = DATE_AND_TIME ( #55, #274 ) ;
#214 = AXIS2_PLACEMENT_3D ( 'NONE', #48, #285, #290 ) ;
#215 = ADVANCED_FACE ( 'NONE', ( #170 ), #43, .T. ) ;
#216 =( NAMED_UNIT ( * ) PLANE_ANGLE_UNIT ( ) SI_UNIT ( $, .RADIAN. ) );
#217 = ORIENTED_EDGE ( 'NONE', *, *, #260, .F. ) ;
#218 = TOROIDAL_SURFACE ( 'NONE', #86, 3.700000000000000178, 0.2000000000000000111 ) ;
#219 = APPROVAL_ROLE ( '' ) ;
#220 = EDGE_CURVE ( 'NONE', #51, #162, #31, .T. ) ;
#221 = ORIENTED_EDGE ( 'NONE', *, *, #169, .T. ) ;
#222 = AXIS2_PLACEMENT_3D ( 'NONE', #18, #305, #257 ) ;
#223 = PERSON_AND_ORGANIZATION ( #272, #89 ) ;
#224 = ORIENTED_EDGE ( 'NONE', *, *, #13, .F. ) ;
#225 = CIRCLE ( 'NONE', #91, 6.000000000000000888 ) ;
#226 = ORIENTED_EDGE ( 'NONE', *, *, #260, .T. ) ;
#227 = PRODUCT_DEFINITION_SHAPE ( 'NONE', 'NONE',  #98 ) ;
#228 = DIRECTION ( 'NONE',  ( -0.000000000000000000, -0.000000000000000000, -1.000000000000000000 ) ) ;
#229 = AXIS2_PLACEMENT_3D ( 'NONE', #44, #255, #40 ) ;
#230 = ORIENTED_EDGE ( 'NONE', *, *, #131, .T. ) ;
#231 = PLANE ( 'NONE',  #289 ) ;
#232 = ADVANCED_FACE ( 'NONE', ( #188 ), #189, .T. ) ;
#233 = AXIS2_PLACEMENT_3D ( 'NONE', #72, #300, #68 ) ;
#234 = ORIENTED_EDGE ( 'NONE', *, *, #236, .T. ) ;
#235 = FACE_OUTER_BOUND ( 'NONE', #32, .T. ) ;
#236 = EDGE_CURVE ( 'NONE', #162, #51, #203, .T. ) ;
#237 = CARTESIAN_POINT ( 'NONE',  ( 0.000000000000000000, 0.000000000000000000, 0.000000000000000000 ) ) ;
#238 = CARTESIAN_POINT ( 'NONE',  ( 0.000000000000000000, 0.000000000000000000, 105.0000000000000142 ) ) ;
#239 = CARTESIAN_POINT ( 'NONE',  ( 0.000000000000000000, 0.000000000000000000, 105.0000000000000142 ) ) ;
#240 = CARTESIAN_POINT ( 'NONE',  ( 0.000000000000000000, 0.000000000000000000, 5.199999999999996625 ) ) ;
#241 = CC_DESIGN_DATE_AND_TIME_ASSIGNMENT ( #76, #146, ( #98 ) ) ;
#242 = PERSON_AND_ORGANIZATION ( #272, #89 ) ;
#243 = AXIS2_PLACEMENT_3D ( 'NONE', #166, #191, #145 ) ;
#244 = CALENDAR_DATE ( 2022, 20, 6 ) ;
#245 = EDGE_LOOP ( 'NONE', ( #217, #34 ) ) ;
#246 = CALENDAR_DATE ( 2022, 20, 6 ) ;
#247 = AXIS2_PLACEMENT_3D ( 'NONE', #237, #259, #144 ) ;
#248 = CARTESIAN_POINT ( 'NONE',  ( 0.000000000000000000, 0.000000000000000000, 5.000000000000000000 ) ) ;
#249 = FACE_OUTER_BOUND ( 'NONE', #115, .T. ) ;
#250 = ORIENTED_EDGE ( 'NONE', *, *, #263, .T. ) ;
#251 = CIRCLE ( 'NONE', #42, 3.500000000000000000 ) ;
#252 = EDGE_CURVE ( 'NONE', #108, #162, #12, .T. ) ;
#253 = CARTESIAN_POINT ( 'NONE',  ( 0.000000000000000000, 0.000000000000000000, 105.0000000000000142 ) ) ;
#254 = LINE ( 'NONE', #136, #59 ) ;
#255 = DIRECTION ( 'NONE',  ( 0.000000000000000000, 0.000000000000000000, 1.000000000000000000 ) ) ;
#256 = TOROIDAL_SURFACE ( 'NONE', #167, 3.700000000000000178, 0.2000000000000000111 ) ;
#257 = DIRECTION ( 'NONE',  ( 1.000000000000000000, 0.000000000000000000, -0.000000000000000000 ) ) ;
#258 = CARTESIAN_POINT ( 'NONE',  ( -3.700000000000000178, 4.531193156845206201E-16, 5.199999999999996625 ) ) ;
#259 = DIRECTION ( 'NONE',  ( 0.000000000000000000, 0.000000000000000000, 1.000000000000000000 ) ) ;
#260 = EDGE_CURVE ( 'NONE', #77, #101, #39, .T. ) ;
#261 = PLANE ( 'NONE',  #247 ) ;
#262 =( LENGTH_UNIT ( ) NAMED_UNIT ( * ) SI_UNIT ( .MILLI., .METRE. ) );
#263 = EDGE_CURVE ( 'NONE', #160, #181, #293, .T. ) ;
#264 = APPROVAL_DATE_TIME ( #151, #198 ) ;
#265 = COORDINATED_UNIVERSAL_TIME_OFFSET ( 1, 0, .AHEAD. ) ;
#266 = ORIENTED_EDGE ( 'NONE', *, *, #125, .T. ) ;
#267 = AXIS2_PLACEMENT_3D ( 'NONE', #258, #206, #163 ) ;
#268 = APPLICATION_CONTEXT ( 'configuration controlled 3d designs of mechanical parts and assemblies' ) ;
#269 = ORIENTED_EDGE ( 'NONE', *, *, #65, .F. ) ;
#270 = CIRCLE ( 'NONE', #139, 0.1999999999999996503 ) ;
#271 = CARTESIAN_POINT ( 'NONE',  ( 0.000000000000000000, 0.000000000000000000, 5.199999999999996625 ) ) ;
#272 = PERSON ( 'NEURÈENÝ', 'NEURÈENÝ', 'NEURÈENÝ', ('NEURÈENÝ'), ('NEURÈENÝ'), ('NEURÈENÝ') ) ;
#273 = CARTESIAN_POINT ( 'NONE',  ( 0.000000000000000000, 0.000000000000000000, 5.000000000000000000 ) ) ;
#274 = LOCAL_TIME ( 11, 53, 28.00000000000000000, #265 ) ;
#275 = CARTESIAN_POINT ( 'NONE',  ( -3.500000000000000000, 0.000000000000000000, 5.199999999999996625 ) ) ;
#276 = ORIENTED_EDGE ( 'NONE', *, *, #125, .F. ) ;
#277 = FACE_OUTER_BOUND ( 'NONE', #245, .T. ) ;
#278 = LOCAL_TIME ( 11, 53, 28.00000000000000000, #7 ) ;
#279 = DIRECTION ( 'NONE',  ( 1.000000000000000000, 0.000000000000000000, 0.000000000000000000 ) ) ;
#280 = VECTOR ( 'NONE', #84, 1000.000000000000000 ) ;
#281 = CARTESIAN_POINT ( 'NONE',  ( 3.500000000000000000, 4.286263797015736595E-16, 5.199999999999996625 ) ) ;
#282 = FACE_OUTER_BOUND ( 'NONE', #54, .T. ) ;
#283 = AXIS2_PLACEMENT_3D ( 'NONE', #19, #22, #96 ) ;
#284 = DIRECTION ( 'NONE',  ( 0.000000000000000000, 0.000000000000000000, 1.000000000000000000 ) ) ;
#285 = DIRECTION ( 'NONE',  ( 0.000000000000000000, 0.000000000000000000, 1.000000000000000000 ) ) ;
#286 = ORIENTED_EDGE ( 'NONE', *, *, #79, .T. ) ;
#287 = COORDINATED_UNIVERSAL_TIME_OFFSET ( 1, 0, .AHEAD. ) ;
#288 = APPROVAL_ROLE ( '' ) ;
#289 = AXIS2_PLACEMENT_3D ( 'NONE', #253, #36, #184 ) ;
#290 = DIRECTION ( 'NONE',  ( 1.000000000000000000, 0.000000000000000000, 0.000000000000000000 ) ) ;
#291 = CC_DESIGN_PERSON_AND_ORGANIZATION_ASSIGNMENT ( #4, #194, ( #98 ) ) ;
#292 = DIRECTION ( 'NONE',  ( 1.000000000000000000, 0.000000000000000000, 0.000000000000000000 ) ) ;
#293 = CIRCLE ( 'NONE', #5, 3.500000000000000000 ) ;
#294 = DIRECTION ( 'NONE',  ( 0.000000000000000000, -1.000000000000000000, 0.000000000000000000 ) ) ;
#295 = EDGE_LOOP ( 'NONE', ( #154, #269, #230, #57 ) ) ;
#296 = ADVANCED_FACE ( 'NONE', ( #211, #235 ), #21, .T. ) ;
#297 = LINE ( 'NONE', #182, #280 ) ;
#298 = CC_DESIGN_SECURITY_CLASSIFICATION ( #200, ( #176 ) ) ;
#299 = CARTESIAN_POINT ( 'NONE',  ( 6.000000000000000888, 7.347880794884120722E-16, 5.000000000000000000 ) ) ;
#300 = DIRECTION ( 'NONE',  ( 0.000000000000000000, 0.000000000000000000, 1.000000000000000000 ) ) ;
#301 = APPLICATION_CONTEXT ( 'configuration controlled 3d designs of mechanical parts and assemblies' ) ;
#302 = EDGE_CURVE ( 'NONE', #101, #77, #109, .T. ) ;
#303 = CARTESIAN_POINT ( 'NONE',  ( 0.000000000000000000, 0.000000000000000000, 5.000000000000000000 ) ) ;
#304 = DIRECTION ( 'NONE',  ( -0.000000000000000000, -0.000000000000000000, -1.000000000000000000 ) ) ;
#305 = DIRECTION ( 'NONE',  ( 0.000000000000000000, 0.000000000000000000, 1.000000000000000000 ) ) ;
#306 = DIRECTION ( 'NONE',  ( -1.000000000000000000, 0.000000000000000000, 0.000000000000000000 ) ) ;
#307 = AXIS2_PLACEMENT_3D ( 'NONE', #70, #284, #190 ) ;
ENDSEC;
END-ISO-10303-21;
