ISO-10303-21;
HEADER;
FILE_DESCRIPTION (( 'STEP AP203' ),
    '1' );
FILE_NAME ('b490.STEP',
    '2022-06-16T06:32:08',
    ( '' ),
    ( '' ),
    'SwSTEP 2.0',
    'SolidWorks 2019',
    '' );
FILE_SCHEMA (( 'CONFIG_CONTROL_DESIGN' ));
ENDSEC;

DATA;
#1 = PERSON_AND_ORGANIZATION_ROLE ( 'design_supplier' ) ;
#2 = ADVANCED_BREP_SHAPE_REPRESENTATION ( 'b490', ( #72, #306 ), #57 ) ;
#3 = EDGE_CURVE ( 'NONE', #53, #23, #31, .T. ) ;
#4 = AXIS2_PLACEMENT_3D ( 'NONE', #110, #220, #293 ) ;
#5 = CARTESIAN_POINT ( 'NONE',  ( 0.000000000000000000, 0.000000000000000000, 10.00000000000000000 ) ) ;
#6 = VERTEX_POINT ( 'NONE', #179 ) ;
#7 = CC_DESIGN_SECURITY_CLASSIFICATION ( #48, ( #180 ) ) ;
#8 = ORIENTED_EDGE ( 'NONE', *, *, #154, .T. ) ;
#9 = CARTESIAN_POINT ( 'NONE',  ( 0.000000000000000000, 0.000000000000000000, 810.0000000000000000 ) ) ;
#10 = DIRECTION ( 'NONE',  ( 0.000000000000000000, 0.000000000000000000, -1.000000000000000000 ) ) ;
#11 = VERTEX_POINT ( 'NONE', #243 ) ;
#12 = DIRECTION ( 'NONE',  ( 1.000000000000000000, 0.000000000000000000, -0.000000000000000000 ) ) ;
#13 = CC_DESIGN_APPROVAL ( #262, ( #175 ) ) ;
#14 = CARTESIAN_POINT ( 'NONE',  ( 16.19999999999999929, 0.000000000000000000, 10.19999999999998685 ) ) ;
#15 = VERTEX_POINT ( 'NONE', #60 ) ;
#16 = MECHANICAL_CONTEXT ( 'NONE', #289, 'mechanical' ) ;
#17 = DIRECTION ( 'NONE',  ( 0.000000000000000000, 0.000000000000000000, 1.000000000000000000 ) ) ;
#18 = ORIENTED_EDGE ( 'NONE', *, *, #118, .F. ) ;
#19 = CIRCLE ( 'NONE', #120, 16.00000000000000000 ) ;
#20 = DIRECTION ( 'NONE',  ( -1.000000000000000000, 0.000000000000000000, 0.000000000000000000 ) ) ;
#21 = DIRECTION ( 'NONE',  ( 1.000000000000000000, 0.000000000000000000, 0.000000000000000000 ) ) ;
#22 = DIRECTION ( 'NONE',  ( 1.000000000000000000, 0.000000000000000000, 0.000000000000000000 ) ) ;
#23 = VERTEX_POINT ( 'NONE', #267 ) ;
#24 = APPROVAL_DATE_TIME ( #73, #56 ) ;
#25 = AXIS2_PLACEMENT_3D ( 'NONE', #241, #275, #290 ) ;
#26 = COORDINATED_UNIVERSAL_TIME_OFFSET ( 1, 0, .AHEAD. ) ;
#27 = CC_DESIGN_PERSON_AND_ORGANIZATION_ASSIGNMENT ( #171, #92, ( #180 ) ) ;
#28 = AXIS2_PLACEMENT_3D ( 'NONE', #59, #295, #195 ) ;
#29 = APPROVAL ( #127, 'NEURÈENÝ' ) ;
#30 = DIRECTION ( 'NONE',  ( -0.000000000000000000, -0.000000000000000000, -1.000000000000000000 ) ) ;
#31 = LINE ( 'NONE', #156, #273 ) ;
#32 = CIRCLE ( 'NONE', #4, 0.1999999999999987899 ) ;
#33 = ORIENTED_EDGE ( 'NONE', *, *, #182, .F. ) ;
#34 = DIRECTION ( 'NONE',  ( -0.000000000000000000, -0.000000000000000000, -1.000000000000000000 ) ) ;
#35 = ORIENTED_EDGE ( 'NONE', *, *, #36, .F. ) ;
#36 = EDGE_CURVE ( 'NONE', #103, #219, #104, .T. ) ;
#37 = DIRECTION ( 'NONE',  ( 0.000000000000000000, 0.000000000000000000, 1.000000000000000000 ) ) ;
#38 = CC_DESIGN_APPROVAL ( #29, ( #48 ) ) ;
#39 = EDGE_LOOP ( 'NONE', ( #132, #134 ) ) ;
#40 = CARTESIAN_POINT ( 'NONE',  ( 0.000000000000000000, 0.000000000000000000, 0.000000000000000000 ) ) ;
#41 = DIRECTION ( 'NONE',  ( 0.000000000000000000, 0.000000000000000000, 1.000000000000000000 ) ) ;
#42 = EDGE_CURVE ( 'NONE', #286, #100, #124, .T. ) ;
#43 = CARTESIAN_POINT ( 'NONE',  ( 0.000000000000000000, 0.000000000000000000, 0.000000000000000000 ) ) ;
#44 = APPROVAL_ROLE ( '' ) ;
#45 = PERSON_AND_ORGANIZATION ( #269, #114 ) ;
#46 = CALENDAR_DATE ( 2022, 16, 6 ) ;
#47 = DESIGN_CONTEXT ( 'detailed design', #128, 'design' ) ;
#48 = SECURITY_CLASSIFICATION ( '', '', #259 ) ;
#49 = ADVANCED_FACE ( 'NONE', ( #247 ), #133, .T. ) ;
#50 = DIRECTION ( 'NONE',  ( 1.000000000000000000, 0.000000000000000000, 0.000000000000000000 ) ) ;
#51 = FACE_BOUND ( 'NONE', #235, .T. ) ;
#52 = ADVANCED_FACE ( 'NONE', ( #163 ), #67, .F. ) ;
#53 = VERTEX_POINT ( 'NONE', #86 ) ;
#54 = ORIENTED_EDGE ( 'NONE', *, *, #111, .F. ) ;
#55 = CARTESIAN_POINT ( 'NONE',  ( 0.000000000000000000, 0.000000000000000000, 10.00000000000000000 ) ) ;
#56 = APPROVAL ( #231, 'NEURÈENÝ' ) ;
#57 =( GEOMETRIC_REPRESENTATION_CONTEXT ( 3 ) GLOBAL_UNCERTAINTY_ASSIGNED_CONTEXT ( ( #173 ) ) GLOBAL_UNIT_ASSIGNED_CONTEXT ( ( #186, #250, #185 ) ) REPRESENTATION_CONTEXT ( 'NONE', 'WORKASPACE' ) );
#58 = ORIENTED_EDGE ( 'NONE', *, *, #253, .T. ) ;
#59 = CARTESIAN_POINT ( 'NONE',  ( 0.000000000000000000, 0.000000000000000000, 810.0000000000000000 ) ) ;
#60 = CARTESIAN_POINT ( 'NONE',  ( -20.00000000000000000, 0.000000000000000000, 0.000000000000000000 ) ) ;
#61 = CARTESIAN_POINT ( 'NONE',  ( 0.000000000000000000, 0.000000000000000000, 10.00000000000000000 ) ) ;
#62 = AXIS2_PLACEMENT_3D ( 'NONE', #9, #230, #66 ) ;
#63 = DIRECTION ( 'NONE',  ( 0.000000000000000000, 0.000000000000000000, 1.000000000000000000 ) ) ;
#64 = EDGE_LOOP ( 'NONE', ( #85, #272, #226, #276 ) ) ;
#65 = CARTESIAN_POINT ( 'NONE',  ( -20.00000000000000000, 0.000000000000000000, 10.00000000000000000 ) ) ;
#66 = DIRECTION ( 'NONE',  ( 1.000000000000000000, 0.000000000000000000, 0.000000000000000000 ) ) ;
#67 = TOROIDAL_SURFACE ( 'NONE', #228, 16.19999999999999929, 0.2000000000000000111 ) ;
#68 = EDGE_CURVE ( 'NONE', #202, #11, #181, .T. ) ;
#69 = CIRCLE ( 'NONE', #62, 16.00000000000000000 ) ;
#70 = CARTESIAN_POINT ( 'NONE',  ( 20.00000000000000000, 2.449293598294706513E-15, 0.000000000000000000 ) ) ;
#71 = PERSON_AND_ORGANIZATION ( #269, #114 ) ;
#72 = MANIFOLD_SOLID_BREP ( 'Zaoblit1', #237 ) ;
#73 = DATE_AND_TIME ( #234, #142 ) ;
#74 = APPLICATION_PROTOCOL_DEFINITION ( 'international standard', 'config_control_design', 1994, #128 ) ;
#75 = CIRCLE ( 'NONE', #194, 16.19999999999999929 ) ;
#76 = ORIENTED_EDGE ( 'NONE', *, *, #42, .T. ) ;
#77 = FACE_OUTER_BOUND ( 'NONE', #157, .T. ) ;
#78 = VECTOR ( 'NONE', #34, 1000.000000000000000 ) ;
#79 = CARTESIAN_POINT ( 'NONE',  ( 0.000000000000000000, 0.000000000000000000, 10.00000000000000000 ) ) ;
#80 = ORIENTED_EDGE ( 'NONE', *, *, #298, .T. ) ;
#81 = CC_DESIGN_PERSON_AND_ORGANIZATION_ASSIGNMENT ( #210, #1, ( #180 ) ) ;
#82 = DIRECTION ( 'NONE',  ( -1.000000000000000000, 0.000000000000000000, 0.000000000000000000 ) ) ;
#83 = DIRECTION ( 'NONE',  ( 1.000000000000000000, 0.000000000000000000, 0.000000000000000000 ) ) ;
#84 = LOCAL_TIME ( 8, 32, 8.000000000000000000, #307 ) ;
#85 = ORIENTED_EDGE ( 'NONE', *, *, #203, .F. ) ;
#86 = CARTESIAN_POINT ( 'NONE',  ( 16.00000000000000000, 1.959434878635765131E-15, 810.0000000000000000 ) ) ;
#87 = ORIENTED_EDGE ( 'NONE', *, *, #190, .T. ) ;
#88 = DIRECTION ( 'NONE',  ( 1.000000000000000000, 0.000000000000000000, 0.000000000000000000 ) ) ;
#89 = FACE_OUTER_BOUND ( 'NONE', #161, .T. ) ;
#90 = DIRECTION ( 'NONE',  ( 1.000000000000000000, 0.000000000000000000, 0.000000000000000000 ) ) ;
#91 = AXIS2_PLACEMENT_3D ( 'NONE', #43, #304, #90 ) ;
#92 = PERSON_AND_ORGANIZATION_ROLE ( 'creator' ) ;
#93 = CC_DESIGN_DATE_AND_TIME_ASSIGNMENT ( #189, #284, ( #48 ) ) ;
#94 = CALENDAR_DATE ( 2022, 16, 6 ) ;
#95 = ORIENTED_EDGE ( 'NONE', *, *, #253, .F. ) ;
#96 = CALENDAR_DATE ( 2022, 16, 6 ) ;
#97 = TOROIDAL_SURFACE ( 'NONE', #200, 16.19999999999999929, 0.2000000000000000111 ) ;
#98 = CIRCLE ( 'NONE', #152, 16.00000000000000000 ) ;
#99 = ADVANCED_FACE ( 'NONE', ( #271 ), #129, .T. ) ;
#100 = VERTEX_POINT ( 'NONE', #136 ) ;
#101 = CARTESIAN_POINT ( 'NONE',  ( -16.00000000000000000, 0.000000000000000000, 810.0000000000000000 ) ) ;
#102 = CIRCLE ( 'NONE', #242, 20.00000000000000000 ) ;
#103 = VERTEX_POINT ( 'NONE', #223 ) ;
#104 = LINE ( 'NONE', #239, #141 ) ;
#105 = ORIENTED_EDGE ( 'NONE', *, *, #108, .T. ) ;
#106 = DIRECTION ( 'NONE',  ( 0.000000000000000000, 0.000000000000000000, 1.000000000000000000 ) ) ;
#107 = PLANE ( 'NONE',  #213 ) ;
#108 = EDGE_CURVE ( 'NONE', #23, #286, #222, .T. ) ;
#109 = AXIS2_PLACEMENT_3D ( 'NONE', #79, #216, #266 ) ;
#110 = CARTESIAN_POINT ( 'NONE',  ( -16.19999999999999929, 1.983927814618711846E-15, 10.19999999999998685 ) ) ;
#111 = EDGE_CURVE ( 'NONE', #23, #11, #19, .T. ) ;
#112 = CYLINDRICAL_SURFACE ( 'NONE', #281, 16.00000000000000000 ) ;
#113 = CARTESIAN_POINT ( 'NONE',  ( 16.19999999999999929, 0.000000000000000000, 9.999999999999992895 ) ) ;
#114 = ORGANIZATION ( 'NEURÈENÝ', 'NEURÈENÝ', '' ) ;
#115 = EDGE_CURVE ( 'NONE', #11, #100, #32, .T. ) ;
#116 = FACE_OUTER_BOUND ( 'NONE', #162, .T. ) ;
#117 = CARTESIAN_POINT ( 'NONE',  ( 0.000000000000000000, 0.000000000000000000, 810.0000000000000000 ) ) ;
#118 = EDGE_CURVE ( 'NONE', #103, #6, #137, .T. ) ;
#119 = CALENDAR_DATE ( 2022, 16, 6 ) ;
#120 = AXIS2_PLACEMENT_3D ( 'NONE', #196, #214, #83 ) ;
#121 = PERSON_AND_ORGANIZATION ( #269, #114 ) ;
#122 = PERSON_AND_ORGANIZATION_ROLE ( 'design_owner' ) ;
#123 = DATE_AND_TIME ( #46, #125 ) ;
#124 = CIRCLE ( 'NONE', #176, 16.19999999999999929 ) ;
#125 = LOCAL_TIME ( 8, 32, 8.000000000000000000, #261 ) ;
#126 = ADVANCED_FACE ( 'NONE', ( #51, #294 ), #107, .T. ) ;
#127 = APPROVAL_STATUS ( 'not_yet_approved' ) ;
#128 = APPLICATION_CONTEXT ( 'configuration controlled 3d designs of mechanical parts and assemblies' ) ;
#129 = PLANE ( 'NONE',  #255 ) ;
#130 = EDGE_LOOP ( 'NONE', ( #270, #206, #197, #158 ) ) ;
#131 = DIRECTION ( 'NONE',  ( -0.000000000000000000, -0.000000000000000000, -1.000000000000000000 ) ) ;
#132 = ORIENTED_EDGE ( 'NONE', *, *, #153, .T. ) ;
#133 = CYLINDRICAL_SURFACE ( 'NONE', #151, 16.00000000000000000 ) ;
#134 = ORIENTED_EDGE ( 'NONE', *, *, #182, .T. ) ;
#135 = DIRECTION ( 'NONE',  ( 0.000000000000000000, -1.000000000000000000, 0.000000000000000000 ) ) ;
#136 = CARTESIAN_POINT ( 'NONE',  ( -16.19999999999999929, 1.983927814618711846E-15, 9.999999999999992895 ) ) ;
#137 = CIRCLE ( 'NONE', #188, 20.00000000000000000 ) ;
#138 = CARTESIAN_POINT ( 'NONE',  ( 0.000000000000000000, 0.000000000000000000, 10.00000000000000000 ) ) ;
#139 = ORIENTED_EDGE ( 'NONE', *, *, #298, .F. ) ;
#140 = DIRECTION ( 'NONE',  ( 1.000000000000000000, 0.000000000000000000, -0.000000000000000000 ) ) ;
#141 = VECTOR ( 'NONE', #244, 1000.000000000000000 ) ;
#142 = LOCAL_TIME ( 8, 32, 8.000000000000000000, #212 ) ;
#143 = LINE ( 'NONE', #65, #229 ) ;
#144 = CC_DESIGN_PERSON_AND_ORGANIZATION_ASSIGNMENT ( #121, #122, ( #256 ) ) ;
#145 = APPLICATION_PROTOCOL_DEFINITION ( 'international standard', 'config_control_design', 1994, #289 ) ;
#146 = APPROVAL_DATE_TIME ( #191, #262 ) ;
#147 = LOCAL_TIME ( 8, 32, 8.000000000000000000, #26 ) ;
#148 = PERSON_AND_ORGANIZATION_ROLE ( 'classification_officer' ) ;
#149 = EDGE_LOOP ( 'NONE', ( #268, #54, #105, #300 ) ) ;
#150 = SHAPE_DEFINITION_REPRESENTATION ( #167, #2 ) ;
#151 = AXIS2_PLACEMENT_3D ( 'NONE', #218, #159, #82 ) ;
#152 = AXIS2_PLACEMENT_3D ( 'NONE', #187, #17, #21 ) ;
#153 = EDGE_CURVE ( 'NONE', #202, #53, #215, .T. ) ;
#154 = EDGE_CURVE ( 'NONE', #6, #103, #249, .T. ) ;
#155 = DIRECTION ( 'NONE',  ( 1.000000000000000000, 0.000000000000000000, 0.000000000000000000 ) ) ;
#156 = CARTESIAN_POINT ( 'NONE',  ( 16.00000000000000000, 1.959434878635765131E-15, 810.0000000000000000 ) ) ;
#157 = EDGE_LOOP ( 'NONE', ( #18, #248, #245, #139 ) ) ;
#158 = ORIENTED_EDGE ( 'NONE', *, *, #203, .T. ) ;
#159 = DIRECTION ( 'NONE',  ( -0.000000000000000000, -0.000000000000000000, -1.000000000000000000 ) ) ;
#160 = APPROVAL_PERSON_ORGANIZATION ( #71, #56, #172 ) ;
#161 = EDGE_LOOP ( 'NONE', ( #33, #252, #221, #263 ) ) ;
#162 = EDGE_LOOP ( 'NONE', ( #35, #246, #80, #58 ) ) ;
#163 = FACE_OUTER_BOUND ( 'NONE', #64, .T. ) ;
#164 = DIRECTION ( 'NONE',  ( 0.000000000000000000, 0.000000000000000000, 1.000000000000000000 ) ) ;
#165 = AXIS2_PLACEMENT_3D ( 'NONE', #277, #63, #140 ) ;
#166 = DIRECTION ( 'NONE',  ( -0.000000000000000000, -0.000000000000000000, -1.000000000000000000 ) ) ;
#167 = PRODUCT_DEFINITION_SHAPE ( 'NONE', 'NONE',  #175 ) ;
#168 = ADVANCED_FACE ( 'NONE', ( #77 ), #177, .T. ) ;
#169 = CARTESIAN_POINT ( 'NONE',  ( -16.00000000000000000, 0.000000000000000000, 810.0000000000000000 ) ) ;
#170 = APPROVAL_STATUS ( 'not_yet_approved' ) ;
#171 = PERSON_AND_ORGANIZATION ( #269, #114 ) ;
#172 = APPROVAL_ROLE ( '' ) ;
#173 = UNCERTAINTY_MEASURE_WITH_UNIT (LENGTH_MEASURE( 1.000000000000000082E-05 ), #186, 'distance_accuracy_value', 'NONE');
#174 = PERSON_AND_ORGANIZATION ( #269, #114 ) ;
#175 = PRODUCT_DEFINITION ( 'NEZNÁMÝ', '', #180, #47 ) ;
#176 = AXIS2_PLACEMENT_3D ( 'NONE', #55, #131, #155 ) ;
#177 = CYLINDRICAL_SURFACE ( 'NONE', #109, 20.00000000000000000 ) ;
#178 = CARTESIAN_POINT ( 'NONE',  ( 0.000000000000000000, 0.000000000000000000, 810.0000000000000000 ) ) ;
#179 = CARTESIAN_POINT ( 'NONE',  ( -20.00000000000000000, 0.000000000000000000, 10.00000000000000000 ) ) ;
#180 = PRODUCT_DEFINITION_FORMATION_WITH_SPECIFIED_SOURCE ( 'LIBOVOLNÝ', '', #256, .NOT_KNOWN. ) ;
#181 = LINE ( 'NONE', #101, #78 ) ;
#182 = EDGE_CURVE ( 'NONE', #53, #202, #69, .T. ) ;
#183 = CARTESIAN_POINT ( 'NONE',  ( 0.000000000000000000, 0.000000000000000000, 10.19999999999998685 ) ) ;
#184 = DIRECTION ( 'NONE',  ( -0.000000000000000000, -0.000000000000000000, -1.000000000000000000 ) ) ;
#185 =( NAMED_UNIT ( * ) SI_UNIT ( $, .STERADIAN. ) SOLID_ANGLE_UNIT ( ) );
#186 =( LENGTH_UNIT ( ) NAMED_UNIT ( * ) SI_UNIT ( .MILLI., .METRE. ) );
#187 = CARTESIAN_POINT ( 'NONE',  ( 0.000000000000000000, 0.000000000000000000, 10.19999999999998685 ) ) ;
#188 = AXIS2_PLACEMENT_3D ( 'NONE', #5, #106, #199 ) ;
#189 = DATE_AND_TIME ( #96, #147 ) ;
#190 = EDGE_CURVE ( 'NONE', #100, #286, #75, .T. ) ;
#191 = DATE_AND_TIME ( #94, #84 ) ;
#192 = PERSON_AND_ORGANIZATION_ROLE ( 'creator' ) ;
#193 = CC_DESIGN_PERSON_AND_ORGANIZATION_ASSIGNMENT ( #305, #192, ( #175 ) ) ;
#194 = AXIS2_PLACEMENT_3D ( 'NONE', #61, #299, #22 ) ;
#195 = DIRECTION ( 'NONE',  ( 1.000000000000000000, 0.000000000000000000, 0.000000000000000000 ) ) ;
#196 = CARTESIAN_POINT ( 'NONE',  ( 0.000000000000000000, 0.000000000000000000, 10.19999999999998685 ) ) ;
#197 = ORIENTED_EDGE ( 'NONE', *, *, #68, .T. ) ;
#198 = EDGE_CURVE ( 'NONE', #219, #15, #291, .T. ) ;
#199 = DIRECTION ( 'NONE',  ( 1.000000000000000000, 0.000000000000000000, 0.000000000000000000 ) ) ;
#200 = AXIS2_PLACEMENT_3D ( 'NONE', #302, #41, #88 ) ;
#201 = DIRECTION ( 'NONE',  ( 0.000000000000000000, 0.000000000000000000, 1.000000000000000000 ) ) ;
#202 = VERTEX_POINT ( 'NONE', #169 ) ;
#203 = EDGE_CURVE ( 'NONE', #11, #23, #98, .T. ) ;
#204 = DIRECTION ( 'NONE',  ( 0.000000000000000000, 0.000000000000000000, 1.000000000000000000 ) ) ;
#205 = FACE_OUTER_BOUND ( 'NONE', #149, .T. ) ;
#206 = ORIENTED_EDGE ( 'NONE', *, *, #153, .F. ) ;
#207 = DIRECTION ( 'NONE',  ( 1.000000000000000000, 0.000000000000000000, 0.000000000000000000 ) ) ;
#208 = AXIS2_PLACEMENT_3D ( 'NONE', #14, #135, #10 ) ;
#209 = FACE_OUTER_BOUND ( 'NONE', #278, .T. ) ;
#210 = PERSON_AND_ORGANIZATION ( #269, #114 ) ;
#211 = PERSON_AND_ORGANIZATION ( #269, #114 ) ;
#212 = COORDINATED_UNIVERSAL_TIME_OFFSET ( 1, 0, .AHEAD. ) ;
#213 = AXIS2_PLACEMENT_3D ( 'NONE', #274, #201, #292 ) ;
#214 = DIRECTION ( 'NONE',  ( 0.000000000000000000, 0.000000000000000000, 1.000000000000000000 ) ) ;
#215 = CIRCLE ( 'NONE', #28, 16.00000000000000000 ) ;
#216 = DIRECTION ( 'NONE',  ( -0.000000000000000000, -0.000000000000000000, -1.000000000000000000 ) ) ;
#217 = CC_DESIGN_PERSON_AND_ORGANIZATION_ASSIGNMENT ( #45, #148, ( #48 ) ) ;
#218 = CARTESIAN_POINT ( 'NONE',  ( 0.000000000000000000, 0.000000000000000000, 810.0000000000000000 ) ) ;
#219 = VERTEX_POINT ( 'NONE', #70 ) ;
#220 = DIRECTION ( 'NONE',  ( 1.224646799147353207E-16, 1.000000000000000000, -0.000000000000000000 ) ) ;
#221 = ORIENTED_EDGE ( 'NONE', *, *, #111, .T. ) ;
#222 = CIRCLE ( 'NONE', #208, 0.2000000000000005107 ) ;
#223 = CARTESIAN_POINT ( 'NONE',  ( 20.00000000000000000, 2.449293598294706513E-15, 10.00000000000000000 ) ) ;
#224 = ADVANCED_FACE ( 'NONE', ( #209 ), #254, .F. ) ;
#225 = CARTESIAN_POINT ( 'NONE',  ( 0.000000000000000000, 0.000000000000000000, 0.000000000000000000 ) ) ;
#226 = ORIENTED_EDGE ( 'NONE', *, *, #42, .F. ) ;
#227 = CYLINDRICAL_SURFACE ( 'NONE', #260, 20.00000000000000000 ) ;
#228 = AXIS2_PLACEMENT_3D ( 'NONE', #183, #164, #50 ) ;
#229 = VECTOR ( 'NONE', #257, 1000.000000000000000 ) ;
#230 = DIRECTION ( 'NONE',  ( 0.000000000000000000, 0.000000000000000000, 1.000000000000000000 ) ) ;
#231 = APPROVAL_STATUS ( 'not_yet_approved' ) ;
#232 = CC_DESIGN_DATE_AND_TIME_ASSIGNMENT ( #282, #258, ( #175 ) ) ;
#233 = CC_DESIGN_APPROVAL ( #56, ( #180 ) ) ;
#234 = CALENDAR_DATE ( 2022, 16, 6 ) ;
#235 = EDGE_LOOP ( 'NONE', ( #76, #87 ) ) ;
#236 = APPROVAL_ROLE ( '' ) ;
#237 = CLOSED_SHELL ( 'NONE', ( #52, #287, #168, #279, #126, #224, #49, #99, #240 ) ) ;
#238 = APPROVAL_PERSON_ORGANIZATION ( #211, #262, #44 ) ;
#239 = CARTESIAN_POINT ( 'NONE',  ( 20.00000000000000000, 2.449293598294706513E-15, 10.00000000000000000 ) ) ;
#240 = ADVANCED_FACE ( 'NONE', ( #205 ), #97, .F. ) ;
#241 = CARTESIAN_POINT ( 'NONE',  ( 0.000000000000000000, 0.000000000000000000, 10.00000000000000000 ) ) ;
#242 = AXIS2_PLACEMENT_3D ( 'NONE', #225, #280, #207 ) ;
#243 = CARTESIAN_POINT ( 'NONE',  ( -16.00000000000000000, 0.000000000000000000, 10.19999999999998685 ) ) ;
#244 = DIRECTION ( 'NONE',  ( -0.000000000000000000, -0.000000000000000000, -1.000000000000000000 ) ) ;
#245 = ORIENTED_EDGE ( 'NONE', *, *, #198, .T. ) ;
#246 = ORIENTED_EDGE ( 'NONE', *, *, #154, .F. ) ;
#247 = FACE_OUTER_BOUND ( 'NONE', #130, .T. ) ;
#248 = ORIENTED_EDGE ( 'NONE', *, *, #36, .T. ) ;
#249 = CIRCLE ( 'NONE', #25, 20.00000000000000000 ) ;
#250 =( NAMED_UNIT ( * ) PLANE_ANGLE_UNIT ( ) SI_UNIT ( $, .RADIAN. ) );
#251 = ORIENTED_EDGE ( 'NONE', *, *, #118, .T. ) ;
#252 = ORIENTED_EDGE ( 'NONE', *, *, #3, .T. ) ;
#253 = EDGE_CURVE ( 'NONE', #15, #219, #102, .T. ) ;
#254 = PLANE ( 'NONE',  #165 ) ;
#255 = AXIS2_PLACEMENT_3D ( 'NONE', #178, #37, #12 ) ;
#256 = PRODUCT ( 'b490', 'b490', '', ( #16 ) ) ;
#257 = DIRECTION ( 'NONE',  ( -0.000000000000000000, -0.000000000000000000, -1.000000000000000000 ) ) ;
#258 = DATE_TIME_ROLE ( 'creation_date' ) ;
#259 = SECURITY_CLASSIFICATION_LEVEL ( 'unclassified' ) ;
#260 = AXIS2_PLACEMENT_3D ( 'NONE', #138, #184, #303 ) ;
#261 = COORDINATED_UNIVERSAL_TIME_OFFSET ( 1, 0, .AHEAD. ) ;
#262 = APPROVAL ( #170, 'NEURÈENÝ' ) ;
#263 = ORIENTED_EDGE ( 'NONE', *, *, #68, .F. ) ;
#264 = APPROVAL_DATE_TIME ( #123, #29 ) ;
#265 = APPROVAL_PERSON_ORGANIZATION ( #174, #29, #236 ) ;
#266 = DIRECTION ( 'NONE',  ( -1.000000000000000000, 0.000000000000000000, 0.000000000000000000 ) ) ;
#267 = CARTESIAN_POINT ( 'NONE',  ( 16.00000000000000000, 1.959434878635765131E-15, 10.19999999999998685 ) ) ;
#268 = ORIENTED_EDGE ( 'NONE', *, *, #115, .F. ) ;
#269 = PERSON ( 'NEURÈENÝ', 'NEURÈENÝ', 'NEURÈENÝ', ('NEURÈENÝ'), ('NEURÈENÝ'), ('NEURÈENÝ') ) ;
#270 = ORIENTED_EDGE ( 'NONE', *, *, #3, .F. ) ;
#271 = FACE_OUTER_BOUND ( 'NONE', #39, .T. ) ;
#272 = ORIENTED_EDGE ( 'NONE', *, *, #115, .T. ) ;
#273 = VECTOR ( 'NONE', #30, 1000.000000000000000 ) ;
#274 = CARTESIAN_POINT ( 'NONE',  ( 0.000000000000000000, 0.000000000000000000, 10.00000000000000000 ) ) ;
#275 = DIRECTION ( 'NONE',  ( 0.000000000000000000, 0.000000000000000000, 1.000000000000000000 ) ) ;
#276 = ORIENTED_EDGE ( 'NONE', *, *, #108, .F. ) ;
#277 = CARTESIAN_POINT ( 'NONE',  ( 0.000000000000000000, 0.000000000000000000, 0.000000000000000000 ) ) ;
#278 = EDGE_LOOP ( 'NONE', ( #95, #288 ) ) ;
#279 = ADVANCED_FACE ( 'NONE', ( #116 ), #227, .T. ) ;
#280 = DIRECTION ( 'NONE',  ( 0.000000000000000000, 0.000000000000000000, 1.000000000000000000 ) ) ;
#281 = AXIS2_PLACEMENT_3D ( 'NONE', #117, #166, #20 ) ;
#282 = DATE_AND_TIME ( #119, #285 ) ;
#283 = COORDINATED_UNIVERSAL_TIME_OFFSET ( 1, 0, .AHEAD. ) ;
#284 = DATE_TIME_ROLE ( 'classification_date' ) ;
#285 = LOCAL_TIME ( 8, 32, 8.000000000000000000, #283 ) ;
#286 = VERTEX_POINT ( 'NONE', #113 ) ;
#287 = ADVANCED_FACE ( 'NONE', ( #89 ), #112, .T. ) ;
#288 = ORIENTED_EDGE ( 'NONE', *, *, #198, .F. ) ;
#289 = APPLICATION_CONTEXT ( 'configuration controlled 3d designs of mechanical parts and assemblies' ) ;
#290 = DIRECTION ( 'NONE',  ( 1.000000000000000000, 0.000000000000000000, 0.000000000000000000 ) ) ;
#291 = CIRCLE ( 'NONE', #91, 20.00000000000000000 ) ;
#292 = DIRECTION ( 'NONE',  ( 1.000000000000000000, 0.000000000000000000, -0.000000000000000000 ) ) ;
#293 = DIRECTION ( 'NONE',  ( -1.000000000000000000, 1.224646799147353947E-16, 0.000000000000000000 ) ) ;
#294 = FACE_OUTER_BOUND ( 'NONE', #296, .T. ) ;
#295 = DIRECTION ( 'NONE',  ( 0.000000000000000000, 0.000000000000000000, 1.000000000000000000 ) ) ;
#296 = EDGE_LOOP ( 'NONE', ( #8, #251 ) ) ;
#297 = DIRECTION ( 'NONE',  ( 1.000000000000000000, 0.000000000000000000, 0.000000000000000000 ) ) ;
#298 = EDGE_CURVE ( 'NONE', #6, #15, #143, .T. ) ;
#299 = DIRECTION ( 'NONE',  ( -0.000000000000000000, -0.000000000000000000, -1.000000000000000000 ) ) ;
#300 = ORIENTED_EDGE ( 'NONE', *, *, #190, .F. ) ;
#301 = PRODUCT_RELATED_PRODUCT_CATEGORY ( 'detail', '', ( #256 ) ) ;
#302 = CARTESIAN_POINT ( 'NONE',  ( 0.000000000000000000, 0.000000000000000000, 10.19999999999998685 ) ) ;
#303 = DIRECTION ( 'NONE',  ( -1.000000000000000000, 0.000000000000000000, 0.000000000000000000 ) ) ;
#304 = DIRECTION ( 'NONE',  ( 0.000000000000000000, 0.000000000000000000, 1.000000000000000000 ) ) ;
#305 = PERSON_AND_ORGANIZATION ( #269, #114 ) ;
#306 = AXIS2_PLACEMENT_3D ( 'NONE', #40, #204, #297 ) ;
#307 = COORDINATED_UNIVERSAL_TIME_OFFSET ( 1, 0, .AHEAD. ) ;
ENDSEC;
END-ISO-10303-21;
