ISO-10303-21;
HEADER;
FILE_DESCRIPTION (( 'STEP AP203' ),
    '1' );
FILE_NAME ('bec4.STEP',
    '2022-06-20T10:06:54',
    ( '' ),
    ( '' ),
    'SwSTEP 2.0',
    'SolidWorks 2019',
    '' );
FILE_SCHEMA (( 'CONFIG_CONTROL_DESIGN' ));
ENDSEC;

DATA;
#1 = CARTESIAN_POINT ( 'NONE',  ( 0.000000000000000000, 0.000000000000000000, 3.000000000000000000 ) ) ;
#2 = CC_DESIGN_PERSON_AND_ORGANIZATION_ASSIGNMENT ( #96, #145, ( #114 ) ) ;
#3 = LOCAL_TIME ( 12, 6, 54.00000000000000000, #286 ) ;
#4 = CARTESIAN_POINT ( 'NONE',  ( -2.100000000000000089, 0.000000000000000000, 3.199999999999980638 ) ) ;
#5 = DIRECTION ( 'NONE',  ( -0.000000000000000000, -0.000000000000000000, -1.000000000000000000 ) ) ;
#6 = EDGE_LOOP ( 'NONE', ( #274, #19, #78, #135 ) ) ;
#7 = EDGE_CURVE ( 'NONE', #134, #214, #159, .T. ) ;
#8 = EDGE_LOOP ( 'NONE', ( #23, #115 ) ) ;
#9 = LOCAL_TIME ( 12, 6, 54.00000000000000000, #195 ) ;
#10 = VERTEX_POINT ( 'NONE', #186 ) ;
#11 = ORIENTED_EDGE ( 'NONE', *, *, #230, .F. ) ;
#12 = CC_DESIGN_DATE_AND_TIME_ASSIGNMENT ( #63, #237, ( #270 ) ) ;
#13 = DIRECTION ( 'NONE',  ( 1.000000000000000000, 0.000000000000000000, 0.000000000000000000 ) ) ;
#14 = CARTESIAN_POINT ( 'NONE',  ( 4.000000000000000000, 4.898587196589412829E-16, 3.000000000000000000 ) ) ;
#15 = AXIS2_PLACEMENT_3D ( 'NONE', #245, #289, #200 ) ;
#16 = EDGE_CURVE ( 'NONE', #214, #134, #57, .T. ) ;
#17 = VECTOR ( 'NONE', #5, 1000.000000000000000 ) ;
#18 = DIRECTION ( 'NONE',  ( -0.000000000000000000, -0.000000000000000000, -1.000000000000000000 ) ) ;
#19 = ORIENTED_EDGE ( 'NONE', *, *, #301, .F. ) ;
#20 = ADVANCED_FACE ( 'NONE', ( #162 ), #108, .F. ) ;
#21 = APPLICATION_PROTOCOL_DEFINITION ( 'international standard', 'config_control_design', 1994, #76 ) ;
#22 = AXIS2_PLACEMENT_3D ( 'NONE', #62, #92, #125 ) ;
#23 = ORIENTED_EDGE ( 'NONE', *, *, #228, .T. ) ;
#24 = DIRECTION ( 'NONE',  ( 1.000000000000000000, 0.000000000000000000, 0.000000000000000000 ) ) ;
#25 = EDGE_CURVE ( 'NONE', #178, #109, #157, .T. ) ;
#26 = DIRECTION ( 'NONE',  ( 1.000000000000000000, 0.000000000000000000, 0.000000000000000000 ) ) ;
#27 = LOCAL_TIME ( 12, 6, 54.00000000000000000, #118 ) ;
#28 = CARTESIAN_POINT ( 'NONE',  ( 0.000000000000000000, 0.000000000000000000, 633.0000000000000000 ) ) ;
#29 = AXIS2_PLACEMENT_3D ( 'NONE', #141, #234, #97 ) ;
#30 = ADVANCED_BREP_SHAPE_REPRESENTATION ( 'bec4', ( #156, #201 ), #129 ) ;
#31 = CC_DESIGN_PERSON_AND_ORGANIZATION_ASSIGNMENT ( #242, #120, ( #304 ) ) ;
#32 = DIRECTION ( 'NONE',  ( 0.000000000000000000, 0.000000000000000000, 1.000000000000000000 ) ) ;
#33 = ORIENTED_EDGE ( 'NONE', *, *, #51, .T. ) ;
#34 = ORIENTED_EDGE ( 'NONE', *, *, #301, .T. ) ;
#35 = LOCAL_TIME ( 12, 6, 54.00000000000000000, #288 ) ;
#36 = CARTESIAN_POINT ( 'NONE',  ( 0.000000000000000000, 0.000000000000000000, 3.000000000000000000 ) ) ;
#37 = DIRECTION ( 'NONE',  ( -1.000000000000000000, 1.224646799147353207E-16, 0.000000000000000000 ) ) ;
#38 = CARTESIAN_POINT ( 'NONE',  ( -4.000000000000000000, 0.000000000000000000, 3.000000000000000000 ) ) ;
#39 = MECHANICAL_CONTEXT ( 'NONE', #227, 'mechanical' ) ;
#40 = APPROVAL_DATE_TIME ( #192, #268 ) ;
#41 = UNCERTAINTY_MEASURE_WITH_UNIT (LENGTH_MEASURE( 1.000000000000000082E-05 ), #89, 'distance_accuracy_value', 'NONE');
#42 = PERSON_AND_ORGANIZATION ( #83, #196 ) ;
#43 = DIRECTION ( 'NONE',  ( -1.000000000000000000, 0.000000000000000000, 0.000000000000000000 ) ) ;
#44 = CARTESIAN_POINT ( 'NONE',  ( 2.300000000000000266, 0.000000000000000000, 3.199999999999980638 ) ) ;
#45 = AXIS2_PLACEMENT_3D ( 'NONE', #36, #275, #302 ) ;
#46 = DIRECTION ( 'NONE',  ( -0.000000000000000000, -0.000000000000000000, -1.000000000000000000 ) ) ;
#47 = CARTESIAN_POINT ( 'NONE',  ( 0.000000000000000000, 0.000000000000000000, 633.0000000000000000 ) ) ;
#48 = PRODUCT_DEFINITION_SHAPE ( 'NONE', 'NONE',  #114 ) ;
#49 = FACE_BOUND ( 'NONE', #8, .T. ) ;
#50 = DIRECTION ( 'NONE',  ( -0.000000000000000000, -0.000000000000000000, -1.000000000000000000 ) ) ;
#51 = EDGE_CURVE ( 'NONE', #56, #10, #194, .T. ) ;
#52 = ORIENTED_EDGE ( 'NONE', *, *, #290, .F. ) ;
#53 = APPROVAL_PERSON_ORGANIZATION ( #281, #91, #61 ) ;
#54 = ORIENTED_EDGE ( 'NONE', *, *, #16, .F. ) ;
#55 = CARTESIAN_POINT ( 'NONE',  ( 0.000000000000000000, 0.000000000000000000, 0.000000000000000000 ) ) ;
#56 = VERTEX_POINT ( 'NONE', #232 ) ;
#57 = CIRCLE ( 'NONE', #240, 2.100000000000000089 ) ;
#58 = DIRECTION ( 'NONE',  ( 1.000000000000000000, 0.000000000000000000, 0.000000000000000000 ) ) ;
#59 = VERTEX_POINT ( 'NONE', #280 ) ;
#60 = CARTESIAN_POINT ( 'NONE',  ( 2.300000000000000266, 0.000000000000000000, 2.999999999999990674 ) ) ;
#61 = APPROVAL_ROLE ( '' ) ;
#62 = CARTESIAN_POINT ( 'NONE',  ( 0.000000000000000000, 0.000000000000000000, 3.199999999999980638 ) ) ;
#63 = DATE_AND_TIME ( #70, #35 ) ;
#64 = AXIS2_PLACEMENT_3D ( 'NONE', #127, #102, #202 ) ;
#65 = CIRCLE ( 'NONE', #262, 4.000000000000000000 ) ;
#66 = DIRECTION ( 'NONE',  ( 0.000000000000000000, 0.000000000000000000, 1.000000000000000000 ) ) ;
#67 = DIRECTION ( 'NONE',  ( -0.000000000000000000, -0.000000000000000000, -1.000000000000000000 ) ) ;
#68 = EDGE_CURVE ( 'NONE', #112, #134, #212, .T. ) ;
#69 = DIRECTION ( 'NONE',  ( -0.000000000000000000, -0.000000000000000000, -1.000000000000000000 ) ) ;
#70 = CALENDAR_DATE ( 2022, 20, 6 ) ;
#71 = AXIS2_PLACEMENT_3D ( 'NONE', #296, #86, #37 ) ;
#72 = DIRECTION ( 'NONE',  ( -0.000000000000000000, -0.000000000000000000, -1.000000000000000000 ) ) ;
#73 = DIRECTION ( 'NONE',  ( 0.000000000000000000, 0.000000000000000000, -1.000000000000000000 ) ) ;
#74 = PRODUCT ( 'bec4', 'bec4', '', ( #39 ) ) ;
#75 = CYLINDRICAL_SURFACE ( 'NONE', #150, 4.000000000000000000 ) ;
#76 = APPLICATION_CONTEXT ( 'configuration controlled 3d designs of mechanical parts and assemblies' ) ;
#77 = ADVANCED_FACE ( 'NONE', ( #168 ), #165, .T. ) ;
#78 = ORIENTED_EDGE ( 'NONE', *, *, #290, .T. ) ;
#79 = ADVANCED_FACE ( 'NONE', ( #147 ), #260, .F. ) ;
#80 = FACE_OUTER_BOUND ( 'NONE', #136, .T. ) ;
#81 = EDGE_LOOP ( 'NONE', ( #11, #33, #267, #52 ) ) ;
#82 = APPROVAL_PERSON_ORGANIZATION ( #294, #306, #197 ) ;
#83 = PERSON ( 'NEURÈENÝ', 'NEURÈENÝ', 'NEURÈENÝ', ('NEURÈENÝ'), ('NEURÈENÝ'), ('NEURÈENÝ') ) ;
#84 = ORIENTED_EDGE ( 'NONE', *, *, #183, .F. ) ;
#85 = AXIS2_PLACEMENT_3D ( 'NONE', #305, #257, #116 ) ;
#86 = DIRECTION ( 'NONE',  ( 1.224646799147353207E-16, 1.000000000000000000, -0.000000000000000000 ) ) ;
#87 = PERSON_AND_ORGANIZATION_ROLE ( 'classification_officer' ) ;
#88 = CIRCLE ( 'NONE', #126, 2.300000000000000266 ) ;
#89 =( LENGTH_UNIT ( ) NAMED_UNIT ( * ) SI_UNIT ( .MILLI., .METRE. ) );
#90 = DIRECTION ( 'NONE',  ( 0.000000000000000000, 0.000000000000000000, 1.000000000000000000 ) ) ;
#91 = APPROVAL ( #189, 'NEURÈENÝ' ) ;
#92 = DIRECTION ( 'NONE',  ( 0.000000000000000000, 0.000000000000000000, 1.000000000000000000 ) ) ;
#93 = VECTOR ( 'NONE', #67, 1000.000000000000000 ) ;
#94 = EDGE_LOOP ( 'NONE', ( #300, #206 ) ) ;
#95 = VECTOR ( 'NONE', #50, 1000.000000000000000 ) ;
#96 = PERSON_AND_ORGANIZATION ( #83, #196 ) ;
#97 = DIRECTION ( 'NONE',  ( 1.000000000000000000, 0.000000000000000000, -0.000000000000000000 ) ) ;
#98 = APPROVAL_STATUS ( 'not_yet_approved' ) ;
#99 = FACE_OUTER_BOUND ( 'NONE', #251, .T. ) ;
#100 = CYLINDRICAL_SURFACE ( 'NONE', #137, 4.000000000000000000 ) ;
#101 = LOCAL_TIME ( 12, 6, 54.00000000000000000, #276 ) ;
#102 = DIRECTION ( 'NONE',  ( -0.000000000000000000, -0.000000000000000000, -1.000000000000000000 ) ) ;
#103 = ADVANCED_FACE ( 'NONE', ( #143 ), #287, .F. ) ;
#104 = FACE_OUTER_BOUND ( 'NONE', #81, .T. ) ;
#105 = CC_DESIGN_APPROVAL ( #91, ( #304 ) ) ;
#106 = DIRECTION ( 'NONE',  ( -1.000000000000000000, 0.000000000000000000, 0.000000000000000000 ) ) ;
#107 = ORIENTED_EDGE ( 'NONE', *, *, #144, .F. ) ;
#108 = TOROIDAL_SURFACE ( 'NONE', #190, 2.300000000000000266, 0.2000000000000000111 ) ;
#109 = VERTEX_POINT ( 'NONE', #60 ) ;
#110 = CARTESIAN_POINT ( 'NONE',  ( 0.000000000000000000, 0.000000000000000000, 3.000000000000000000 ) ) ;
#111 = CIRCLE ( 'NONE', #283, 2.100000000000000089 ) ;
#112 = VERTEX_POINT ( 'NONE', #210 ) ;
#113 = APPROVAL_PERSON_ORGANIZATION ( #297, #268, #285 ) ;
#114 = PRODUCT_DEFINITION ( 'NEZNÁMÝ', '', #304, #172 ) ;
#115 = ORIENTED_EDGE ( 'NONE', *, *, #25, .T. ) ;
#116 = DIRECTION ( 'NONE',  ( 1.000000000000000000, 0.000000000000000000, -0.000000000000000000 ) ) ;
#117 = CIRCLE ( 'NONE', #15, 2.100000000000000089 ) ;
#118 = COORDINATED_UNIVERSAL_TIME_OFFSET ( 1, 0, .AHEAD. ) ;
#119 = ORIENTED_EDGE ( 'NONE', *, *, #215, .T. ) ;
#120 = PERSON_AND_ORGANIZATION_ROLE ( 'creator' ) ;
#121 = VERTEX_POINT ( 'NONE', #38 ) ;
#122 = PERSON_AND_ORGANIZATION ( #83, #196 ) ;
#123 = CLOSED_SHELL ( 'NONE', ( #79, #235, #223, #169, #236, #103, #185, #77, #20 ) ) ;
#124 = APPROVAL_DATE_TIME ( #303, #306 ) ;
#125 = DIRECTION ( 'NONE',  ( 1.000000000000000000, 0.000000000000000000, 0.000000000000000000 ) ) ;
#126 = AXIS2_PLACEMENT_3D ( 'NONE', #219, #69, #175 ) ;
#127 = CARTESIAN_POINT ( 'NONE',  ( 0.000000000000000000, 0.000000000000000000, 633.0000000000000000 ) ) ;
#128 = CC_DESIGN_PERSON_AND_ORGANIZATION_ASSIGNMENT ( #42, #238, ( #74 ) ) ;
#129 =( GEOMETRIC_REPRESENTATION_CONTEXT ( 3 ) GLOBAL_UNCERTAINTY_ASSIGNED_CONTEXT ( ( #41 ) ) GLOBAL_UNIT_ASSIGNED_CONTEXT ( ( #89, #193, #273 ) ) REPRESENTATION_CONTEXT ( 'NONE', 'WORKASPACE' ) );
#130 = FACE_OUTER_BOUND ( 'NONE', #253, .T. ) ;
#131 = PRODUCT_RELATED_PRODUCT_CATEGORY ( 'detail', '', ( #74 ) ) ;
#132 = DIRECTION ( 'NONE',  ( 0.000000000000000000, -1.000000000000000000, 0.000000000000000000 ) ) ;
#133 = ORIENTED_EDGE ( 'NONE', *, *, #7, .T. ) ;
#134 = VERTEX_POINT ( 'NONE', #198 ) ;
#135 = ORIENTED_EDGE ( 'NONE', *, *, #247, .T. ) ;
#136 = EDGE_LOOP ( 'NONE', ( #34, #208 ) ) ;
#137 = AXIS2_PLACEMENT_3D ( 'NONE', #220, #46, #261 ) ;
#138 = DIRECTION ( 'NONE',  ( 0.000000000000000000, 0.000000000000000000, 1.000000000000000000 ) ) ;
#139 = EDGE_LOOP ( 'NONE', ( #107, #204, #119, #158 ) ) ;
#140 = CARTESIAN_POINT ( 'NONE',  ( 0.000000000000000000, 0.000000000000000000, 3.000000000000000000 ) ) ;
#141 = CARTESIAN_POINT ( 'NONE',  ( 0.000000000000000000, 0.000000000000000000, 0.000000000000000000 ) ) ;
#142 = CALENDAR_DATE ( 2022, 20, 6 ) ;
#143 = FACE_OUTER_BOUND ( 'NONE', #239, .T. ) ;
#144 = EDGE_CURVE ( 'NONE', #214, #178, #209, .T. ) ;
#145 = PERSON_AND_ORGANIZATION_ROLE ( 'creator' ) ;
#146 = CIRCLE ( 'NONE', #284, 4.000000000000000000 ) ;
#147 = FACE_OUTER_BOUND ( 'NONE', #292, .T. ) ;
#148 = DATE_TIME_ROLE ( 'creation_date' ) ;
#149 = CARTESIAN_POINT ( 'NONE',  ( 0.000000000000000000, 0.000000000000000000, 3.000000000000000000 ) ) ;
#150 = AXIS2_PLACEMENT_3D ( 'NONE', #149, #259, #43 ) ;
#151 = FACE_OUTER_BOUND ( 'NONE', #6, .T. ) ;
#152 = CARTESIAN_POINT ( 'NONE',  ( -2.100000000000000089, 0.000000000000000000, 633.0000000000000000 ) ) ;
#153 = CIRCLE ( 'NONE', #167, 0.2000000000000000944 ) ;
#154 = CC_DESIGN_SECURITY_CLASSIFICATION ( #270, ( #304 ) ) ;
#155 = CARTESIAN_POINT ( 'NONE',  ( -2.100000000000000089, 0.000000000000000000, 633.0000000000000000 ) ) ;
#156 = MANIFOLD_SOLID_BREP ( 'Zaoblit1', #123 ) ;
#157 = CIRCLE ( 'NONE', #45, 2.300000000000000266 ) ;
#158 = ORIENTED_EDGE ( 'NONE', *, *, #25, .F. ) ;
#159 = CIRCLE ( 'NONE', #22, 2.100000000000000089 ) ;
#160 = ORIENTED_EDGE ( 'NONE', *, *, #228, .F. ) ;
#161 = DIRECTION ( 'NONE',  ( 0.000000000000000000, 0.000000000000000000, 1.000000000000000000 ) ) ;
#162 = FACE_OUTER_BOUND ( 'NONE', #139, .T. ) ;
#163 = CARTESIAN_POINT ( 'NONE',  ( 0.000000000000000000, 0.000000000000000000, 3.199999999999980638 ) ) ;
#164 = SECURITY_CLASSIFICATION_LEVEL ( 'unclassified' ) ;
#165 = PLANE ( 'NONE',  #85 ) ;
#166 = DATE_AND_TIME ( #142, #101 ) ;
#167 = AXIS2_PLACEMENT_3D ( 'NONE', #44, #132, #73 ) ;
#168 = FACE_OUTER_BOUND ( 'NONE', #94, .T. ) ;
#169 = ADVANCED_FACE ( 'NONE', ( #151 ), #100, .T. ) ;
#170 = CARTESIAN_POINT ( 'NONE',  ( 0.000000000000000000, 0.000000000000000000, 0.000000000000000000 ) ) ;
#171 = AXIS2_PLACEMENT_3D ( 'NONE', #163, #254, #277 ) ;
#172 = DESIGN_CONTEXT ( 'detailed design', #76, 'design' ) ;
#173 = CC_DESIGN_APPROVAL ( #306, ( #114 ) ) ;
#174 = DIRECTION ( 'NONE',  ( 0.000000000000000000, 0.000000000000000000, 1.000000000000000000 ) ) ;
#175 = DIRECTION ( 'NONE',  ( 1.000000000000000000, 0.000000000000000000, 0.000000000000000000 ) ) ;
#176 = DIRECTION ( 'NONE',  ( 1.000000000000000000, 0.000000000000000000, -0.000000000000000000 ) ) ;
#177 = CARTESIAN_POINT ( 'NONE',  ( -4.000000000000000000, 0.000000000000000000, 3.000000000000000000 ) ) ;
#178 = VERTEX_POINT ( 'NONE', #291 ) ;
#179 = ORIENTED_EDGE ( 'NONE', *, *, #215, .F. ) ;
#180 = CIRCLE ( 'NONE', #207, 4.000000000000000000 ) ;
#181 = CC_DESIGN_PERSON_AND_ORGANIZATION_ASSIGNMENT ( #122, #258, ( #304 ) ) ;
#182 = ORIENTED_EDGE ( 'NONE', *, *, #68, .F. ) ;
#183 = EDGE_CURVE ( 'NONE', #269, #112, #117, .T. ) ;
#184 = APPROVAL_STATUS ( 'not_yet_approved' ) ;
#185 = ADVANCED_FACE ( 'NONE', ( #130 ), #263, .T. ) ;
#186 = CARTESIAN_POINT ( 'NONE',  ( 4.000000000000000000, 4.898587196589412829E-16, 0.000000000000000000 ) ) ;
#187 = CALENDAR_DATE ( 2022, 20, 6 ) ;
#188 = CARTESIAN_POINT ( 'NONE',  ( 0.000000000000000000, 0.000000000000000000, 3.199999999999980638 ) ) ;
#189 = APPROVAL_STATUS ( 'not_yet_approved' ) ;
#190 = AXIS2_PLACEMENT_3D ( 'NONE', #188, #90, #231 ) ;
#191 = DIRECTION ( 'NONE',  ( 1.000000000000000000, 0.000000000000000000, 0.000000000000000000 ) ) ;
#192 = DATE_AND_TIME ( #187, #9 ) ;
#193 =( NAMED_UNIT ( * ) PLANE_ANGLE_UNIT ( ) SI_UNIT ( $, .RADIAN. ) );
#194 = LINE ( 'NONE', #14, #93 ) ;
#195 = COORDINATED_UNIVERSAL_TIME_OFFSET ( 1, 0, .AHEAD. ) ;
#196 = ORGANIZATION ( 'NEURÈENÝ', 'NEURÈENÝ', '' ) ;
#197 = APPROVAL_ROLE ( '' ) ;
#198 = CARTESIAN_POINT ( 'NONE',  ( 2.100000000000000089, 2.571758278209441957E-16, 3.199999999999980638 ) ) ;
#199 = DIRECTION ( 'NONE',  ( 0.000000000000000000, 0.000000000000000000, 1.000000000000000000 ) ) ;
#200 = DIRECTION ( 'NONE',  ( 1.000000000000000000, 0.000000000000000000, 0.000000000000000000 ) ) ;
#201 = AXIS2_PLACEMENT_3D ( 'NONE', #282, #66, #58 ) ;
#202 = DIRECTION ( 'NONE',  ( -1.000000000000000000, 0.000000000000000000, 0.000000000000000000 ) ) ;
#203 = EDGE_CURVE ( 'NONE', #10, #59, #246, .T. ) ;
#204 = ORIENTED_EDGE ( 'NONE', *, *, #7, .F. ) ;
#205 = EDGE_CURVE ( 'NONE', #112, #269, #111, .T. ) ;
#206 = ORIENTED_EDGE ( 'NONE', *, *, #205, .T. ) ;
#207 = AXIS2_PLACEMENT_3D ( 'NONE', #55, #138, #266 ) ;
#208 = ORIENTED_EDGE ( 'NONE', *, *, #230, .T. ) ;
#209 = CIRCLE ( 'NONE', #71, 0.2000000000000000944 ) ;
#210 = CARTESIAN_POINT ( 'NONE',  ( 2.100000000000000089, 2.571758278209441957E-16, 633.0000000000000000 ) ) ;
#211 = PERSON_AND_ORGANIZATION ( #83, #196 ) ;
#212 = LINE ( 'NONE', #218, #225 ) ;
#213 = APPROVAL_DATE_TIME ( #166, #91 ) ;
#214 = VERTEX_POINT ( 'NONE', #4 ) ;
#215 = EDGE_CURVE ( 'NONE', #134, #109, #153, .T. ) ;
#216 = ORIENTED_EDGE ( 'NONE', *, *, #68, .T. ) ;
#217 = CALENDAR_DATE ( 2022, 20, 6 ) ;
#218 = CARTESIAN_POINT ( 'NONE',  ( 2.100000000000000089, 2.571758278209441957E-16, 633.0000000000000000 ) ) ;
#219 = CARTESIAN_POINT ( 'NONE',  ( 0.000000000000000000, 0.000000000000000000, 3.000000000000000000 ) ) ;
#220 = CARTESIAN_POINT ( 'NONE',  ( 0.000000000000000000, 0.000000000000000000, 3.000000000000000000 ) ) ;
#221 = CC_DESIGN_APPROVAL ( #268, ( #270 ) ) ;
#222 = EDGE_CURVE ( 'NONE', #269, #214, #224, .T. ) ;
#223 = ADVANCED_FACE ( 'NONE', ( #104 ), #75, .T. ) ;
#224 = LINE ( 'NONE', #152, #17 ) ;
#225 = VECTOR ( 'NONE', #18, 1000.000000000000000 ) ;
#226 = ORIENTED_EDGE ( 'NONE', *, *, #247, .F. ) ;
#227 = APPLICATION_CONTEXT ( 'configuration controlled 3d designs of mechanical parts and assemblies' ) ;
#228 = EDGE_CURVE ( 'NONE', #109, #178, #88, .T. ) ;
#229 = ORIENTED_EDGE ( 'NONE', *, *, #144, .T. ) ;
#230 = EDGE_CURVE ( 'NONE', #56, #121, #65, .T. ) ;
#231 = DIRECTION ( 'NONE',  ( 1.000000000000000000, 0.000000000000000000, 0.000000000000000000 ) ) ;
#232 = CARTESIAN_POINT ( 'NONE',  ( 4.000000000000000000, 4.898587196589412829E-16, 3.000000000000000000 ) ) ;
#233 = AXIS2_PLACEMENT_3D ( 'NONE', #170, #174, #24 ) ;
#234 = DIRECTION ( 'NONE',  ( 0.000000000000000000, 0.000000000000000000, 1.000000000000000000 ) ) ;
#235 = ADVANCED_FACE ( 'NONE', ( #99 ), #264, .T. ) ;
#236 = ADVANCED_FACE ( 'NONE', ( #49, #80 ), #250, .T. ) ;
#237 = DATE_TIME_ROLE ( 'classification_date' ) ;
#238 = PERSON_AND_ORGANIZATION_ROLE ( 'design_owner' ) ;
#239 = EDGE_LOOP ( 'NONE', ( #226, #252 ) ) ;
#240 = AXIS2_PLACEMENT_3D ( 'NONE', #298, #161, #191 ) ;
#241 = AXIS2_PLACEMENT_3D ( 'NONE', #47, #72, #106 ) ;
#242 = PERSON_AND_ORGANIZATION ( #83, #196 ) ;
#243 = DIRECTION ( 'NONE',  ( 0.000000000000000000, 0.000000000000000000, 1.000000000000000000 ) ) ;
#244 = DIRECTION ( 'NONE',  ( 1.000000000000000000, 0.000000000000000000, 0.000000000000000000 ) ) ;
#245 = CARTESIAN_POINT ( 'NONE',  ( 0.000000000000000000, 0.000000000000000000, 633.0000000000000000 ) ) ;
#246 = CIRCLE ( 'NONE', #233, 4.000000000000000000 ) ;
#247 = EDGE_CURVE ( 'NONE', #59, #10, #180, .T. ) ;
#248 = LINE ( 'NONE', #177, #95 ) ;
#249 = ORIENTED_EDGE ( 'NONE', *, *, #222, .T. ) ;
#250 = PLANE ( 'NONE',  #265 ) ;
#251 = EDGE_LOOP ( 'NONE', ( #271, #216, #133, #295 ) ) ;
#252 = ORIENTED_EDGE ( 'NONE', *, *, #203, .F. ) ;
#253 = EDGE_LOOP ( 'NONE', ( #182, #84, #249, #293 ) ) ;
#254 = DIRECTION ( 'NONE',  ( 0.000000000000000000, 0.000000000000000000, 1.000000000000000000 ) ) ;
#255 = CC_DESIGN_DATE_AND_TIME_ASSIGNMENT ( #307, #148, ( #114 ) ) ;
#256 = APPLICATION_PROTOCOL_DEFINITION ( 'international standard', 'config_control_design', 1994, #227 ) ;
#257 = DIRECTION ( 'NONE',  ( 0.000000000000000000, 0.000000000000000000, 1.000000000000000000 ) ) ;
#258 = PERSON_AND_ORGANIZATION_ROLE ( 'design_supplier' ) ;
#259 = DIRECTION ( 'NONE',  ( -0.000000000000000000, -0.000000000000000000, -1.000000000000000000 ) ) ;
#260 = TOROIDAL_SURFACE ( 'NONE', #171, 2.300000000000000266, 0.2000000000000000111 ) ;
#261 = DIRECTION ( 'NONE',  ( -1.000000000000000000, 0.000000000000000000, 0.000000000000000000 ) ) ;
#262 = AXIS2_PLACEMENT_3D ( 'NONE', #1, #243, #244 ) ;
#263 = CYLINDRICAL_SURFACE ( 'NONE', #64, 2.100000000000000089 ) ;
#264 = CYLINDRICAL_SURFACE ( 'NONE', #241, 2.100000000000000089 ) ;
#265 = AXIS2_PLACEMENT_3D ( 'NONE', #110, #32, #176 ) ;
#266 = DIRECTION ( 'NONE',  ( 1.000000000000000000, 0.000000000000000000, 0.000000000000000000 ) ) ;
#267 = ORIENTED_EDGE ( 'NONE', *, *, #203, .T. ) ;
#268 = APPROVAL ( #98, 'NEURÈENÝ' ) ;
#269 = VERTEX_POINT ( 'NONE', #155 ) ;
#270 = SECURITY_CLASSIFICATION ( '', '', #164 ) ;
#271 = ORIENTED_EDGE ( 'NONE', *, *, #205, .F. ) ;
#272 = CC_DESIGN_PERSON_AND_ORGANIZATION_ASSIGNMENT ( #211, #87, ( #270 ) ) ;
#273 =( NAMED_UNIT ( * ) SI_UNIT ( $, .STERADIAN. ) SOLID_ANGLE_UNIT ( ) );
#274 = ORIENTED_EDGE ( 'NONE', *, *, #51, .F. ) ;
#275 = DIRECTION ( 'NONE',  ( -0.000000000000000000, -0.000000000000000000, -1.000000000000000000 ) ) ;
#276 = COORDINATED_UNIVERSAL_TIME_OFFSET ( 1, 0, .AHEAD. ) ;
#277 = DIRECTION ( 'NONE',  ( 1.000000000000000000, 0.000000000000000000, 0.000000000000000000 ) ) ;
#278 = CALENDAR_DATE ( 2022, 20, 6 ) ;
#279 = DIRECTION ( 'NONE',  ( 0.000000000000000000, 0.000000000000000000, 1.000000000000000000 ) ) ;
#280 = CARTESIAN_POINT ( 'NONE',  ( -4.000000000000000000, 0.000000000000000000, 0.000000000000000000 ) ) ;
#281 = PERSON_AND_ORGANIZATION ( #83, #196 ) ;
#282 = CARTESIAN_POINT ( 'NONE',  ( 0.000000000000000000, 0.000000000000000000, 0.000000000000000000 ) ) ;
#283 = AXIS2_PLACEMENT_3D ( 'NONE', #28, #199, #26 ) ;
#284 = AXIS2_PLACEMENT_3D ( 'NONE', #140, #279, #13 ) ;
#285 = APPROVAL_ROLE ( '' ) ;
#286 = COORDINATED_UNIVERSAL_TIME_OFFSET ( 1, 0, .AHEAD. ) ;
#287 = PLANE ( 'NONE',  #29 ) ;
#288 = COORDINATED_UNIVERSAL_TIME_OFFSET ( 1, 0, .AHEAD. ) ;
#289 = DIRECTION ( 'NONE',  ( 0.000000000000000000, 0.000000000000000000, 1.000000000000000000 ) ) ;
#290 = EDGE_CURVE ( 'NONE', #121, #59, #248, .T. ) ;
#291 = CARTESIAN_POINT ( 'NONE',  ( -2.300000000000000266, 2.816687638038912549E-16, 2.999999999999990674 ) ) ;
#292 = EDGE_LOOP ( 'NONE', ( #54, #229, #160, #179 ) ) ;
#293 = ORIENTED_EDGE ( 'NONE', *, *, #16, .T. ) ;
#294 = PERSON_AND_ORGANIZATION ( #83, #196 ) ;
#295 = ORIENTED_EDGE ( 'NONE', *, *, #222, .F. ) ;
#296 = CARTESIAN_POINT ( 'NONE',  ( -2.300000000000000266, 2.816687638038912549E-16, 3.199999999999980638 ) ) ;
#297 = PERSON_AND_ORGANIZATION ( #83, #196 ) ;
#298 = CARTESIAN_POINT ( 'NONE',  ( 0.000000000000000000, 0.000000000000000000, 3.199999999999980638 ) ) ;
#299 = SHAPE_DEFINITION_REPRESENTATION ( #48, #30 ) ;
#300 = ORIENTED_EDGE ( 'NONE', *, *, #183, .T. ) ;
#301 = EDGE_CURVE ( 'NONE', #121, #56, #146, .T. ) ;
#302 = DIRECTION ( 'NONE',  ( 1.000000000000000000, 0.000000000000000000, 0.000000000000000000 ) ) ;
#303 = DATE_AND_TIME ( #217, #3 ) ;
#304 = PRODUCT_DEFINITION_FORMATION_WITH_SPECIFIED_SOURCE ( 'LIBOVOLNÝ', '', #74, .NOT_KNOWN. ) ;
#305 = CARTESIAN_POINT ( 'NONE',  ( 0.000000000000000000, 0.000000000000000000, 633.0000000000000000 ) ) ;
#306 = APPROVAL ( #184, 'NEURÈENÝ' ) ;
#307 = DATE_AND_TIME ( #278, #27 ) ;
ENDSEC;
END-ISO-10303-21;
