ISO-10303-21;
HEADER;
FILE_DESCRIPTION (( 'STEP AP203' ),
    '1' );
FILE_NAME ('8bfa.STEP',
    '2022-06-20T10:02:55',
    ( '' ),
    ( '' ),
    'SwSTEP 2.0',
    'SolidWorks 2019',
    '' );
FILE_SCHEMA (( 'CONFIG_CONTROL_DESIGN' ));
ENDSEC;

DATA;
#1 = CARTESIAN_POINT ( 'NONE',  ( 0.000000000000000000, 0.000000000000000000, 3.000000000000000000 ) ) ;
#2 = FACE_OUTER_BOUND ( 'NONE', #57, .T. ) ;
#3 = ORIENTED_EDGE ( 'NONE', *, *, #286, .F. ) ;
#4 = LOCAL_TIME ( 12, 2, 55.00000000000000000, #168 ) ;
#5 = DIRECTION ( 'NONE',  ( 1.000000000000000000, 0.000000000000000000, 0.000000000000000000 ) ) ;
#6 = DIRECTION ( 'NONE',  ( 0.000000000000000000, 0.000000000000000000, 1.000000000000000000 ) ) ;
#7 = EDGE_CURVE ( 'NONE', #226, #265, #75, .T. ) ;
#8 = APPROVAL_PERSON_ORGANIZATION ( #290, #143, #78 ) ;
#9 = DIRECTION ( 'NONE',  ( -0.000000000000000000, -0.000000000000000000, -1.000000000000000000 ) ) ;
#10 = EDGE_LOOP ( 'NONE', ( #192, #3 ) ) ;
#11 = PLANE ( 'NONE',  #139 ) ;
#12 = VERTEX_POINT ( 'NONE', #231 ) ;
#13 = LINE ( 'NONE', #33, #86 ) ;
#14 = ORIENTED_EDGE ( 'NONE', *, *, #232, .T. ) ;
#15 = APPROVAL_DATE_TIME ( #135, #297 ) ;
#16 = ADVANCED_FACE ( 'NONE', ( #96 ), #102, .F. ) ;
#17 = CARTESIAN_POINT ( 'NONE',  ( -2.700000000000000178, 3.306546357697853733E-16, 2.999999999999990674 ) ) ;
#18 = PERSON_AND_ORGANIZATION ( #21, #278 ) ;
#19 = AXIS2_PLACEMENT_3D ( 'NONE', #138, #122, #169 ) ;
#20 = ORIENTED_EDGE ( 'NONE', *, *, #286, .T. ) ;
#21 = PERSON ( 'NEURÈENÝ', 'NEURÈENÝ', 'NEURÈENÝ', ('NEURÈENÝ'), ('NEURÈENÝ'), ('NEURÈENÝ') ) ;
#22 = AXIS2_PLACEMENT_3D ( 'NONE', #251, #83, #150 ) ;
#23 = ORIENTED_EDGE ( 'NONE', *, *, #224, .T. ) ;
#24 = PERSON_AND_ORGANIZATION_ROLE ( 'creator' ) ;
#25 = ORIENTED_EDGE ( 'NONE', *, *, #173, .F. ) ;
#26 = MANIFOLD_SOLID_BREP ( 'Zaoblit1', #212 ) ;
#27 = DATE_AND_TIME ( #215, #295 ) ;
#28 = CARTESIAN_POINT ( 'NONE',  ( -2.700000000000000178, 3.306546357697853733E-16, 3.199999999999980638 ) ) ;
#29 = CIRCLE ( 'NONE', #246, 5.000000000000000000 ) ;
#30 = DIRECTION ( 'NONE',  ( 1.000000000000000000, 0.000000000000000000, 0.000000000000000000 ) ) ;
#31 = CARTESIAN_POINT ( 'NONE',  ( 0.000000000000000000, 0.000000000000000000, 633.0000000000000000 ) ) ;
#32 = EDGE_CURVE ( 'NONE', #98, #171, #97, .T. ) ;
#33 = CARTESIAN_POINT ( 'NONE',  ( 5.000000000000000000, 6.123233995736766282E-16, 3.000000000000000000 ) ) ;
#34 = ORIENTED_EDGE ( 'NONE', *, *, #301, .F. ) ;
#35 = DIRECTION ( 'NONE',  ( -0.000000000000000000, -0.000000000000000000, -1.000000000000000000 ) ) ;
#36 = CIRCLE ( 'NONE', #253, 2.500000000000000000 ) ;
#37 = CIRCLE ( 'NONE', #50, 2.700000000000000178 ) ;
#38 = DIRECTION ( 'NONE',  ( 0.000000000000000000, 0.000000000000000000, -1.000000000000000000 ) ) ;
#39 = ORIENTED_EDGE ( 'NONE', *, *, #232, .F. ) ;
#40 = COORDINATED_UNIVERSAL_TIME_OFFSET ( 1, 0, .AHEAD. ) ;
#41 = AXIS2_PLACEMENT_3D ( 'NONE', #133, #227, #38 ) ;
#42 = ORIENTED_EDGE ( 'NONE', *, *, #32, .T. ) ;
#43 = DATE_TIME_ROLE ( 'creation_date' ) ;
#44 = ORIENTED_EDGE ( 'NONE', *, *, #173, .T. ) ;
#45 = DIRECTION ( 'NONE',  ( 0.000000000000000000, 0.000000000000000000, 1.000000000000000000 ) ) ;
#46 = ORIENTED_EDGE ( 'NONE', *, *, #132, .T. ) ;
#47 = ADVANCED_FACE ( 'NONE', ( #304 ), #95, .F. ) ;
#48 = ORIENTED_EDGE ( 'NONE', *, *, #296, .T. ) ;
#49 = DIRECTION ( 'NONE',  ( -0.000000000000000000, -0.000000000000000000, -1.000000000000000000 ) ) ;
#50 = AXIS2_PLACEMENT_3D ( 'NONE', #179, #228, #177 ) ;
#51 = DIRECTION ( 'NONE',  ( 1.000000000000000000, 0.000000000000000000, -0.000000000000000000 ) ) ;
#52 = APPROVAL_STATUS ( 'not_yet_approved' ) ;
#53 = AXIS2_PLACEMENT_3D ( 'NONE', #240, #45, #213 ) ;
#54 = CC_DESIGN_APPROVAL ( #297, ( #264 ) ) ;
#55 = VERTEX_POINT ( 'NONE', #17 ) ;
#56 = CYLINDRICAL_SURFACE ( 'NONE', #79, 5.000000000000000000 ) ;
#57 = EDGE_LOOP ( 'NONE', ( #123, #82 ) ) ;
#58 = FACE_OUTER_BOUND ( 'NONE', #259, .T. ) ;
#59 = ORIENTED_EDGE ( 'NONE', *, *, #152, .F. ) ;
#60 = AXIS2_PLACEMENT_3D ( 'NONE', #112, #291, #74 ) ;
#61 = ADVANCED_FACE ( 'NONE', ( #287 ), #72, .T. ) ;
#62 = APPROVAL ( #280, 'NEURÈENÝ' ) ;
#63 = DIRECTION ( 'NONE',  ( -0.000000000000000000, -0.000000000000000000, -1.000000000000000000 ) ) ;
#64 = AXIS2_PLACEMENT_3D ( 'NONE', #67, #191, #141 ) ;
#65 = ORIENTED_EDGE ( 'NONE', *, *, #267, .F. ) ;
#66 = CARTESIAN_POINT ( 'NONE',  ( -5.000000000000000000, 0.000000000000000000, 3.000000000000000000 ) ) ;
#67 = CARTESIAN_POINT ( 'NONE',  ( 0.000000000000000000, 0.000000000000000000, 0.000000000000000000 ) ) ;
#68 = APPROVAL_ROLE ( '' ) ;
#69 = DIRECTION ( 'NONE',  ( 1.000000000000000000, 0.000000000000000000, 0.000000000000000000 ) ) ;
#70 = FACE_BOUND ( 'NONE', #219, .T. ) ;
#71 = PERSON_AND_ORGANIZATION_ROLE ( 'classification_officer' ) ;
#72 = CYLINDRICAL_SURFACE ( 'NONE', #117, 5.000000000000000000 ) ;
#73 = COORDINATED_UNIVERSAL_TIME_OFFSET ( 1, 0, .AHEAD. ) ;
#74 = DIRECTION ( 'NONE',  ( 1.000000000000000000, 0.000000000000000000, 0.000000000000000000 ) ) ;
#75 = CIRCLE ( 'NONE', #147, 5.000000000000000000 ) ;
#76 = EDGE_CURVE ( 'NONE', #171, #163, #250, .T. ) ;
#77 = DIRECTION ( 'NONE',  ( 0.000000000000000000, 0.000000000000000000, 1.000000000000000000 ) ) ;
#78 = APPROVAL_ROLE ( '' ) ;
#79 = AXIS2_PLACEMENT_3D ( 'NONE', #272, #126, #153 ) ;
#80 = CARTESIAN_POINT ( 'NONE',  ( 0.000000000000000000, 0.000000000000000000, 633.0000000000000000 ) ) ;
#81 = CARTESIAN_POINT ( 'NONE',  ( 2.500000000000000000, 3.061616997868383141E-16, 3.199999999999980638 ) ) ;
#82 = ORIENTED_EDGE ( 'NONE', *, *, #301, .T. ) ;
#83 = DIRECTION ( 'NONE',  ( 0.000000000000000000, 0.000000000000000000, 1.000000000000000000 ) ) ;
#84 = EDGE_CURVE ( 'NONE', #163, #171, #154, .T. ) ;
#85 =( LENGTH_UNIT ( ) NAMED_UNIT ( * ) SI_UNIT ( .MILLI., .METRE. ) );
#86 = VECTOR ( 'NONE', #49, 1000.000000000000000 ) ;
#87 = AXIS2_PLACEMENT_3D ( 'NONE', #80, #254, #183 ) ;
#88 = EDGE_CURVE ( 'NONE', #163, #55, #198, .T. ) ;
#89 = APPLICATION_PROTOCOL_DEFINITION ( 'international standard', 'config_control_design', 1994, #136 ) ;
#90 = DIRECTION ( 'NONE',  ( 0.000000000000000000, 0.000000000000000000, 1.000000000000000000 ) ) ;
#91 = LOCAL_TIME ( 12, 2, 55.00000000000000000, #285 ) ;
#92 = PERSON_AND_ORGANIZATION_ROLE ( 'design_owner' ) ;
#93 = CC_DESIGN_PERSON_AND_ORGANIZATION_ASSIGNMENT ( #271, #71, ( #120 ) ) ;
#94 = ADVANCED_BREP_SHAPE_REPRESENTATION ( '8bfa', ( #26, #270 ), #220 ) ;
#95 = PLANE ( 'NONE',  #64 ) ;
#96 = FACE_OUTER_BOUND ( 'NONE', #261, .T. ) ;
#97 = LINE ( 'NONE', #193, #188 ) ;
#98 = VERTEX_POINT ( 'NONE', #214 ) ;
#99 = ADVANCED_FACE ( 'NONE', ( #70, #2 ), #125, .T. ) ;
#100 = CARTESIAN_POINT ( 'NONE',  ( -2.500000000000000000, 0.000000000000000000, 633.0000000000000000 ) ) ;
#101 = PERSON_AND_ORGANIZATION ( #21, #278 ) ;
#102 = TOROIDAL_SURFACE ( 'NONE', #53, 2.700000000000000178, 0.2000000000000000111 ) ;
#103 = CARTESIAN_POINT ( 'NONE',  ( 0.000000000000000000, 0.000000000000000000, 3.000000000000000000 ) ) ;
#104 = AXIS2_PLACEMENT_3D ( 'NONE', #211, #306, #185 ) ;
#105 = ADVANCED_FACE ( 'NONE', ( #156 ), #11, .T. ) ;
#106 = DIRECTION ( 'NONE',  ( -1.000000000000000000, 0.000000000000000000, 0.000000000000000000 ) ) ;
#107 = ORIENTED_EDGE ( 'NONE', *, *, #88, .T. ) ;
#108 = UNCERTAINTY_MEASURE_WITH_UNIT (LENGTH_MEASURE( 1.000000000000000082E-05 ), #85, 'distance_accuracy_value', 'NONE');
#109 = CIRCLE ( 'NONE', #60, 5.000000000000000000 ) ;
#110 = DIRECTION ( 'NONE',  ( 0.000000000000000000, 0.000000000000000000, 1.000000000000000000 ) ) ;
#111 = ORIENTED_EDGE ( 'NONE', *, *, #210, .T. ) ;
#112 = CARTESIAN_POINT ( 'NONE',  ( 0.000000000000000000, 0.000000000000000000, 0.000000000000000000 ) ) ;
#113 = LOCAL_TIME ( 12, 2, 55.00000000000000000, #40 ) ;
#114 = ADVANCED_FACE ( 'NONE', ( #58 ), #149, .T. ) ;
#115 = DIRECTION ( 'NONE',  ( 1.000000000000000000, 0.000000000000000000, 0.000000000000000000 ) ) ;
#116 = CARTESIAN_POINT ( 'NONE',  ( 0.000000000000000000, 0.000000000000000000, 3.199999999999980638 ) ) ;
#117 = AXIS2_PLACEMENT_3D ( 'NONE', #288, #165, #266 ) ;
#118 = APPROVAL_STATUS ( 'not_yet_approved' ) ;
#119 = DIRECTION ( 'NONE',  ( 1.224646799147353207E-16, 1.000000000000000000, -0.000000000000000000 ) ) ;
#120 = SECURITY_CLASSIFICATION ( '', '', #217 ) ;
#121 = DATE_AND_TIME ( #241, #4 ) ;
#122 = DIRECTION ( 'NONE',  ( 0.000000000000000000, 0.000000000000000000, 1.000000000000000000 ) ) ;
#123 = ORIENTED_EDGE ( 'NONE', *, *, #7, .T. ) ;
#124 = SHAPE_DEFINITION_REPRESENTATION ( #248, #94 ) ;
#125 = PLANE ( 'NONE',  #275 ) ;
#126 = DIRECTION ( 'NONE',  ( -0.000000000000000000, -0.000000000000000000, -1.000000000000000000 ) ) ;
#127 = CC_DESIGN_PERSON_AND_ORGANIZATION_ASSIGNMENT ( #256, #166, ( #255 ) ) ;
#128 = CARTESIAN_POINT ( 'NONE',  ( -2.500000000000000000, 0.000000000000000000, 633.0000000000000000 ) ) ;
#129 = CIRCLE ( 'NONE', #305, 2.700000000000000178 ) ;
#130 = DIRECTION ( 'NONE',  ( 1.000000000000000000, 0.000000000000000000, 0.000000000000000000 ) ) ;
#131 = ORIENTED_EDGE ( 'NONE', *, *, #76, .F. ) ;
#132 = EDGE_CURVE ( 'NONE', #55, #12, #129, .T. ) ;
#133 = CARTESIAN_POINT ( 'NONE',  ( 2.700000000000000178, 0.000000000000000000, 3.199999999999980638 ) ) ;
#134 = CARTESIAN_POINT ( 'NONE',  ( 0.000000000000000000, 0.000000000000000000, 3.000000000000000000 ) ) ;
#135 = DATE_AND_TIME ( #279, #113 ) ;
#136 = APPLICATION_CONTEXT ( 'configuration controlled 3d designs of mechanical parts and assemblies' ) ;
#137 = ORIENTED_EDGE ( 'NONE', *, *, #267, .T. ) ;
#138 = CARTESIAN_POINT ( 'NONE',  ( 0.000000000000000000, 0.000000000000000000, 3.199999999999980638 ) ) ;
#139 = AXIS2_PLACEMENT_3D ( 'NONE', #31, #274, #51 ) ;
#140 = PERSON_AND_ORGANIZATION ( #21, #278 ) ;
#141 = DIRECTION ( 'NONE',  ( 1.000000000000000000, 0.000000000000000000, -0.000000000000000000 ) ) ;
#142 = VECTOR ( 'NONE', #63, 1000.000000000000000 ) ;
#143 = APPROVAL ( #52, 'NEURÈENÝ' ) ;
#144 = EDGE_LOOP ( 'NONE', ( #34, #14, #20, #205 ) ) ;
#145 = PERSON_AND_ORGANIZATION_ROLE ( 'design_supplier' ) ;
#146 = EDGE_LOOP ( 'NONE', ( #39, #195, #48, #111 ) ) ;
#147 = AXIS2_PLACEMENT_3D ( 'NONE', #1, #263, #69 ) ;
#148 = APPROVAL_PERSON_ORGANIZATION ( #140, #62, #68 ) ;
#149 = CYLINDRICAL_SURFACE ( 'NONE', #87, 2.500000000000000000 ) ;
#150 = DIRECTION ( 'NONE',  ( 1.000000000000000000, 0.000000000000000000, 0.000000000000000000 ) ) ;
#151 = EDGE_LOOP ( 'NONE', ( #238, #59, #229, #249 ) ) ;
#152 = EDGE_CURVE ( 'NONE', #207, #98, #36, .T. ) ;
#153 = DIRECTION ( 'NONE',  ( -1.000000000000000000, 0.000000000000000000, 0.000000000000000000 ) ) ;
#154 = CIRCLE ( 'NONE', #19, 2.500000000000000000 ) ;
#155 = CC_DESIGN_PERSON_AND_ORGANIZATION_ASSIGNMENT ( #160, #24, ( #264 ) ) ;
#156 = FACE_OUTER_BOUND ( 'NONE', #277, .T. ) ;
#157 = VERTEX_POINT ( 'NONE', #222 ) ;
#158 = CIRCLE ( 'NONE', #22, 2.500000000000000000 ) ;
#159 = CALENDAR_DATE ( 2022, 20, 6 ) ;
#160 = PERSON_AND_ORGANIZATION ( #21, #278 ) ;
#161 = APPROVAL_DATE_TIME ( #257, #62 ) ;
#162 = CC_DESIGN_SECURITY_CLASSIFICATION ( #120, ( #264 ) ) ;
#163 = VERTEX_POINT ( 'NONE', #206 ) ;
#164 = ADVANCED_FACE ( 'NONE', ( #247 ), #201, .F. ) ;
#165 = DIRECTION ( 'NONE',  ( -0.000000000000000000, -0.000000000000000000, -1.000000000000000000 ) ) ;
#166 = PERSON_AND_ORGANIZATION_ROLE ( 'creator' ) ;
#167 = DIRECTION ( 'NONE',  ( -0.000000000000000000, -0.000000000000000000, -1.000000000000000000 ) ) ;
#168 = COORDINATED_UNIVERSAL_TIME_OFFSET ( 1, 0, .AHEAD. ) ;
#169 = DIRECTION ( 'NONE',  ( 1.000000000000000000, 0.000000000000000000, 0.000000000000000000 ) ) ;
#170 = CC_DESIGN_APPROVAL ( #62, ( #255 ) ) ;
#171 = VERTEX_POINT ( 'NONE', #81 ) ;
#172 = PRODUCT ( '8bfa', '8bfa', '', ( #299 ) ) ;
#173 = EDGE_CURVE ( 'NONE', #12, #55, #37, .T. ) ;
#174 = CARTESIAN_POINT ( 'NONE',  ( 0.000000000000000000, 0.000000000000000000, 0.000000000000000000 ) ) ;
#175 = DIRECTION ( 'NONE',  ( 1.000000000000000000, 0.000000000000000000, -0.000000000000000000 ) ) ;
#176 = LOCAL_TIME ( 12, 2, 55.00000000000000000, #233 ) ;
#177 = DIRECTION ( 'NONE',  ( 1.000000000000000000, 0.000000000000000000, 0.000000000000000000 ) ) ;
#178 = EDGE_LOOP ( 'NONE', ( #235, #131, #137, #218 ) ) ;
#179 = CARTESIAN_POINT ( 'NONE',  ( 0.000000000000000000, 0.000000000000000000, 3.000000000000000000 ) ) ;
#180 = ORIENTED_EDGE ( 'NONE', *, *, #84, .F. ) ;
#181 = PRODUCT_RELATED_PRODUCT_CATEGORY ( 'detail', '', ( #172 ) ) ;
#182 = APPLICATION_CONTEXT ( 'configuration controlled 3d designs of mechanical parts and assemblies' ) ;
#183 = DIRECTION ( 'NONE',  ( -1.000000000000000000, 0.000000000000000000, 0.000000000000000000 ) ) ;
#184 = CC_DESIGN_APPROVAL ( #143, ( #120 ) ) ;
#185 = DIRECTION ( 'NONE',  ( 1.000000000000000000, 0.000000000000000000, 0.000000000000000000 ) ) ;
#186 = CARTESIAN_POINT ( 'NONE',  ( 0.000000000000000000, 0.000000000000000000, 0.000000000000000000 ) ) ;
#187 = DESIGN_CONTEXT ( 'detailed design', #182, 'design' ) ;
#188 = VECTOR ( 'NONE', #167, 1000.000000000000000 ) ;
#189 = APPLICATION_PROTOCOL_DEFINITION ( 'international standard', 'config_control_design', 1994, #182 ) ;
#190 = VERTEX_POINT ( 'NONE', #268 ) ;
#191 = DIRECTION ( 'NONE',  ( 0.000000000000000000, 0.000000000000000000, 1.000000000000000000 ) ) ;
#192 = ORIENTED_EDGE ( 'NONE', *, *, #210, .F. ) ;
#193 = CARTESIAN_POINT ( 'NONE',  ( 2.500000000000000000, 3.061616997868383141E-16, 633.0000000000000000 ) ) ;
#194 = AXIS2_PLACEMENT_3D ( 'NONE', #243, #9, #106 ) ;
#195 = ORIENTED_EDGE ( 'NONE', *, *, #7, .F. ) ;
#196 = DATE_TIME_ROLE ( 'classification_date' ) ;
#197 = CARTESIAN_POINT ( 'NONE',  ( 5.000000000000000000, 6.123233995736766282E-16, 3.000000000000000000 ) ) ;
#198 = CIRCLE ( 'NONE', #234, 0.2000000000000000944 ) ;
#199 = ADVANCED_FACE ( 'NONE', ( #269 ), #56, .T. ) ;
#200 = DIRECTION ( 'NONE',  ( 1.000000000000000000, 0.000000000000000000, 0.000000000000000000 ) ) ;
#201 = TOROIDAL_SURFACE ( 'NONE', #236, 2.700000000000000178, 0.2000000000000000111 ) ;
#202 = CIRCLE ( 'NONE', #41, 0.2000000000000000944 ) ;
#203 = CC_DESIGN_DATE_AND_TIME_ASSIGNMENT ( #121, #196, ( #120 ) ) ;
#204 = LINE ( 'NONE', #100, #307 ) ;
#205 = ORIENTED_EDGE ( 'NONE', *, *, #296, .F. ) ;
#206 = CARTESIAN_POINT ( 'NONE',  ( -2.500000000000000000, 0.000000000000000000, 3.199999999999980638 ) ) ;
#207 = VERTEX_POINT ( 'NONE', #128 ) ;
#208 = ORIENTED_EDGE ( 'NONE', *, *, #152, .T. ) ;
#209 = DIRECTION ( 'NONE',  ( 0.000000000000000000, 0.000000000000000000, 1.000000000000000000 ) ) ;
#210 = EDGE_CURVE ( 'NONE', #157, #190, #29, .T. ) ;
#211 = CARTESIAN_POINT ( 'NONE',  ( 0.000000000000000000, 0.000000000000000000, 3.000000000000000000 ) ) ;
#212 = CLOSED_SHELL ( 'NONE', ( #16, #114, #61, #199, #99, #47, #239, #105, #164 ) ) ;
#213 = DIRECTION ( 'NONE',  ( 1.000000000000000000, 0.000000000000000000, 0.000000000000000000 ) ) ;
#214 = CARTESIAN_POINT ( 'NONE',  ( 2.500000000000000000, 3.061616997868383141E-16, 633.0000000000000000 ) ) ;
#215 = CALENDAR_DATE ( 2022, 20, 6 ) ;
#216 = DIRECTION ( 'NONE',  ( -1.000000000000000000, 1.224646799147353207E-16, 0.000000000000000000 ) ) ;
#217 = SECURITY_CLASSIFICATION_LEVEL ( 'unclassified' ) ;
#218 = ORIENTED_EDGE ( 'NONE', *, *, #132, .F. ) ;
#219 = EDGE_LOOP ( 'NONE', ( #44, #46 ) ) ;
#220 =( GEOMETRIC_REPRESENTATION_CONTEXT ( 3 ) GLOBAL_UNCERTAINTY_ASSIGNED_CONTEXT ( ( #108 ) ) GLOBAL_UNIT_ASSIGNED_CONTEXT ( ( #85, #230, #302 ) ) REPRESENTATION_CONTEXT ( 'NONE', 'WORKASPACE' ) );
#221 = CC_DESIGN_PERSON_AND_ORGANIZATION_ASSIGNMENT ( #260, #92, ( #172 ) ) ;
#222 = CARTESIAN_POINT ( 'NONE',  ( -5.000000000000000000, 0.000000000000000000, 0.000000000000000000 ) ) ;
#223 = CARTESIAN_POINT ( 'NONE',  ( 0.000000000000000000, 0.000000000000000000, 3.199999999999980638 ) ) ;
#224 = EDGE_CURVE ( 'NONE', #98, #207, #158, .T. ) ;
#225 = CYLINDRICAL_SURFACE ( 'NONE', #194, 2.500000000000000000 ) ;
#226 = VERTEX_POINT ( 'NONE', #298 ) ;
#227 = DIRECTION ( 'NONE',  ( 0.000000000000000000, -1.000000000000000000, 0.000000000000000000 ) ) ;
#228 = DIRECTION ( 'NONE',  ( -0.000000000000000000, -0.000000000000000000, -1.000000000000000000 ) ) ;
#229 = ORIENTED_EDGE ( 'NONE', *, *, #252, .T. ) ;
#230 =( NAMED_UNIT ( * ) PLANE_ANGLE_UNIT ( ) SI_UNIT ( $, .RADIAN. ) );
#231 = CARTESIAN_POINT ( 'NONE',  ( 2.700000000000000178, 0.000000000000000000, 2.999999999999990674 ) ) ;
#232 = EDGE_CURVE ( 'NONE', #265, #190, #13, .T. ) ;
#233 = COORDINATED_UNIVERSAL_TIME_OFFSET ( 1, 0, .AHEAD. ) ;
#234 = AXIS2_PLACEMENT_3D ( 'NONE', #28, #119, #216 ) ;
#235 = ORIENTED_EDGE ( 'NONE', *, *, #88, .F. ) ;
#236 = AXIS2_PLACEMENT_3D ( 'NONE', #223, #77, #130 ) ;
#237 = CIRCLE ( 'NONE', #104, 5.000000000000000000 ) ;
#238 = ORIENTED_EDGE ( 'NONE', *, *, #32, .F. ) ;
#239 = ADVANCED_FACE ( 'NONE', ( #276 ), #225, .T. ) ;
#240 = CARTESIAN_POINT ( 'NONE',  ( 0.000000000000000000, 0.000000000000000000, 3.199999999999980638 ) ) ;
#241 = CALENDAR_DATE ( 2022, 20, 6 ) ;
#242 = ORIENTED_EDGE ( 'NONE', *, *, #76, .T. ) ;
#243 = CARTESIAN_POINT ( 'NONE',  ( 0.000000000000000000, 0.000000000000000000, 633.0000000000000000 ) ) ;
#244 = CARTESIAN_POINT ( 'NONE',  ( 0.000000000000000000, 0.000000000000000000, 633.0000000000000000 ) ) ;
#245 = APPROVAL_DATE_TIME ( #27, #143 ) ;
#246 = AXIS2_PLACEMENT_3D ( 'NONE', #174, #110, #5 ) ;
#247 = FACE_OUTER_BOUND ( 'NONE', #178, .T. ) ;
#248 = PRODUCT_DEFINITION_SHAPE ( 'NONE', 'NONE',  #255 ) ;
#249 = ORIENTED_EDGE ( 'NONE', *, *, #84, .T. ) ;
#250 = CIRCLE ( 'NONE', #293, 2.500000000000000000 ) ;
#251 = CARTESIAN_POINT ( 'NONE',  ( 0.000000000000000000, 0.000000000000000000, 633.0000000000000000 ) ) ;
#252 = EDGE_CURVE ( 'NONE', #207, #163, #204, .T. ) ;
#253 = AXIS2_PLACEMENT_3D ( 'NONE', #244, #294, #30 ) ;
#254 = DIRECTION ( 'NONE',  ( -0.000000000000000000, -0.000000000000000000, -1.000000000000000000 ) ) ;
#255 = PRODUCT_DEFINITION ( 'NEZNÁMÝ', '', #264, #187 ) ;
#256 = PERSON_AND_ORGANIZATION ( #21, #278 ) ;
#257 = DATE_AND_TIME ( #159, #91 ) ;
#258 = DATE_AND_TIME ( #262, #176 ) ;
#259 = EDGE_LOOP ( 'NONE', ( #273, #42, #242, #289 ) ) ;
#260 = PERSON_AND_ORGANIZATION ( #21, #278 ) ;
#261 = EDGE_LOOP ( 'NONE', ( #180, #107, #25, #65 ) ) ;
#262 = CALENDAR_DATE ( 2022, 20, 6 ) ;
#263 = DIRECTION ( 'NONE',  ( 0.000000000000000000, 0.000000000000000000, 1.000000000000000000 ) ) ;
#264 = PRODUCT_DEFINITION_FORMATION_WITH_SPECIFIED_SOURCE ( 'LIBOVOLNÝ', '', #172, .NOT_KNOWN. ) ;
#265 = VERTEX_POINT ( 'NONE', #197 ) ;
#266 = DIRECTION ( 'NONE',  ( -1.000000000000000000, 0.000000000000000000, 0.000000000000000000 ) ) ;
#267 = EDGE_CURVE ( 'NONE', #171, #12, #202, .T. ) ;
#268 = CARTESIAN_POINT ( 'NONE',  ( 5.000000000000000000, 6.123233995736766282E-16, 0.000000000000000000 ) ) ;
#269 = FACE_OUTER_BOUND ( 'NONE', #146, .T. ) ;
#270 = AXIS2_PLACEMENT_3D ( 'NONE', #186, #209, #115 ) ;
#271 = PERSON_AND_ORGANIZATION ( #21, #278 ) ;
#272 = CARTESIAN_POINT ( 'NONE',  ( 0.000000000000000000, 0.000000000000000000, 3.000000000000000000 ) ) ;
#273 = ORIENTED_EDGE ( 'NONE', *, *, #224, .F. ) ;
#274 = DIRECTION ( 'NONE',  ( 0.000000000000000000, 0.000000000000000000, 1.000000000000000000 ) ) ;
#275 = AXIS2_PLACEMENT_3D ( 'NONE', #134, #6, #175 ) ;
#276 = FACE_OUTER_BOUND ( 'NONE', #151, .T. ) ;
#277 = EDGE_LOOP ( 'NONE', ( #208, #23 ) ) ;
#278 = ORGANIZATION ( 'NEURÈENÝ', 'NEURÈENÝ', '' ) ;
#279 = CALENDAR_DATE ( 2022, 20, 6 ) ;
#280 = APPROVAL_STATUS ( 'not_yet_approved' ) ;
#282 = LINE ( 'NONE', #66, #142 ) ;
#281 = APPROVAL_PERSON_ORGANIZATION ( #18, #297, #300 ) ;
#283 = CC_DESIGN_PERSON_AND_ORGANIZATION_ASSIGNMENT ( #101, #145, ( #264 ) ) ;
#284 = DIRECTION ( 'NONE',  ( 1.000000000000000000, 0.000000000000000000, 0.000000000000000000 ) ) ;
#285 = COORDINATED_UNIVERSAL_TIME_OFFSET ( 1, 0, .AHEAD. ) ;
#286 = EDGE_CURVE ( 'NONE', #190, #157, #109, .T. ) ;
#287 = FACE_OUTER_BOUND ( 'NONE', #144, .T. ) ;
#288 = CARTESIAN_POINT ( 'NONE',  ( 0.000000000000000000, 0.000000000000000000, 3.000000000000000000 ) ) ;
#289 = ORIENTED_EDGE ( 'NONE', *, *, #252, .F. ) ;
#290 = PERSON_AND_ORGANIZATION ( #21, #278 ) ;
#291 = DIRECTION ( 'NONE',  ( 0.000000000000000000, 0.000000000000000000, 1.000000000000000000 ) ) ;
#292 = DIRECTION ( 'NONE',  ( -0.000000000000000000, -0.000000000000000000, -1.000000000000000000 ) ) ;
#293 = AXIS2_PLACEMENT_3D ( 'NONE', #116, #90, #284 ) ;
#294 = DIRECTION ( 'NONE',  ( 0.000000000000000000, 0.000000000000000000, 1.000000000000000000 ) ) ;
#295 = LOCAL_TIME ( 12, 2, 55.00000000000000000, #73 ) ;
#296 = EDGE_CURVE ( 'NONE', #226, #157, #282, .T. ) ;
#297 = APPROVAL ( #118, 'NEURÈENÝ' ) ;
#298 = CARTESIAN_POINT ( 'NONE',  ( -5.000000000000000000, 0.000000000000000000, 3.000000000000000000 ) ) ;
#299 = MECHANICAL_CONTEXT ( 'NONE', #136, 'mechanical' ) ;
#300 = APPROVAL_ROLE ( '' ) ;
#301 = EDGE_CURVE ( 'NONE', #265, #226, #237, .T. ) ;
#302 =( NAMED_UNIT ( * ) SI_UNIT ( $, .STERADIAN. ) SOLID_ANGLE_UNIT ( ) );
#303 = CC_DESIGN_DATE_AND_TIME_ASSIGNMENT ( #258, #43, ( #255 ) ) ;
#304 = FACE_OUTER_BOUND ( 'NONE', #10, .T. ) ;
#305 = AXIS2_PLACEMENT_3D ( 'NONE', #103, #292, #200 ) ;
#307 = VECTOR ( 'NONE', #35, 1000.000000000000000 ) ;
#306 = DIRECTION ( 'NONE',  ( 0.000000000000000000, 0.000000000000000000, 1.000000000000000000 ) ) ;
ENDSEC;
END-ISO-10303-21;
