ISO-10303-21;
HEADER;
FILE_DESCRIPTION (( 'STEP AP203' ),
    '1' );
FILE_NAME ('c6f8.STEP',
    '2022-06-20T10:05:06',
    ( '' ),
    ( '' ),
    'SwSTEP 2.0',
    'SolidWorks 2019',
    '' );
FILE_SCHEMA (( 'CONFIG_CONTROL_DESIGN' ));
ENDSEC;

DATA;
#1 = AXIS2_PLACEMENT_3D ( 'NONE', #291, #11, #272 ) ;
#2 = VERTEX_POINT ( 'NONE', #196 ) ;
#3 = VERTEX_POINT ( 'NONE', #144 ) ;
#4 = EDGE_CURVE ( 'NONE', #143, #46, #81, .T. ) ;
#5 = PLANE ( 'NONE',  #296 ) ;
#6 = ORIENTED_EDGE ( 'NONE', *, *, #126, .T. ) ;
#7 = ORIENTED_EDGE ( 'NONE', *, *, #231, .T. ) ;
#8 = ADVANCED_FACE ( 'NONE', ( #284 ), #239, .T. ) ;
#9 = DIRECTION ( 'NONE',  ( 0.000000000000000000, 0.000000000000000000, 1.000000000000000000 ) ) ;
#10 = DIRECTION ( 'NONE',  ( 1.000000000000000000, 0.000000000000000000, 0.000000000000000000 ) ) ;
#11 = DIRECTION ( 'NONE',  ( 0.000000000000000000, 0.000000000000000000, 1.000000000000000000 ) ) ;
#12 = DIRECTION ( 'NONE',  ( -0.000000000000000000, -0.000000000000000000, -1.000000000000000000 ) ) ;
#13 = ADVANCED_FACE ( 'NONE', ( #83 ), #263, .T. ) ;
#14 = DIRECTION ( 'NONE',  ( 0.000000000000000000, -1.000000000000000000, 0.000000000000000000 ) ) ;
#15 = AXIS2_PLACEMENT_3D ( 'NONE', #90, #274, #10 ) ;
#16 = CARTESIAN_POINT ( 'NONE',  ( 0.000000000000000000, 0.000000000000000000, 3.000000000000000000 ) ) ;
#17 = CC_DESIGN_PERSON_AND_ORGANIZATION_ASSIGNMENT ( #72, #48, ( #33 ) ) ;
#18 = APPROVAL_DATE_TIME ( #95, #158 ) ;
#19 = ORIENTED_EDGE ( 'NONE', *, *, #236, .F. ) ;
#20 = VERTEX_POINT ( 'NONE', #109 ) ;
#21 = PERSON_AND_ORGANIZATION ( #262, #106 ) ;
#22 = ORIENTED_EDGE ( 'NONE', *, *, #89, .T. ) ;
#23 = EDGE_CURVE ( 'NONE', #205, #3, #307, .T. ) ;
#24 = AXIS2_PLACEMENT_3D ( 'NONE', #16, #154, #199 ) ;
#25 = CARTESIAN_POINT ( 'NONE',  ( 0.000000000000000000, 0.000000000000000000, 0.000000000000000000 ) ) ;
#26 = ORIENTED_EDGE ( 'NONE', *, *, #35, .F. ) ;
#27 = LINE ( 'NONE', #174, #215 ) ;
#28 = AXIS2_PLACEMENT_3D ( 'NONE', #104, #147, #148 ) ;
#29 = CARTESIAN_POINT ( 'NONE',  ( 0.000000000000000000, 0.000000000000000000, 403.0000000000000000 ) ) ;
#30 = EDGE_CURVE ( 'NONE', #20, #3, #27, .T. ) ;
#31 = CARTESIAN_POINT ( 'NONE',  ( 0.000000000000000000, 0.000000000000000000, 3.199999999999980638 ) ) ;
#32 = CARTESIAN_POINT ( 'NONE',  ( 2.250000000000000000, 2.755455298081544285E-16, 403.0000000000000000 ) ) ;
#33 = PRODUCT_DEFINITION_FORMATION_WITH_SPECIFIED_SOURCE ( 'LIBOVOLNÝ', '', #80, .NOT_KNOWN. ) ;
#34 = APPROVAL_DATE_TIME ( #65, #242 ) ;
#35 = EDGE_CURVE ( 'NONE', #2, #20, #123, .T. ) ;
#36 = COORDINATED_UNIVERSAL_TIME_OFFSET ( 1, 0, .AHEAD. ) ;
#37 = DIRECTION ( 'NONE',  ( -1.000000000000000000, 0.000000000000000000, 0.000000000000000000 ) ) ;
#38 = DIRECTION ( 'NONE',  ( 0.000000000000000000, 0.000000000000000000, 1.000000000000000000 ) ) ;
#39 = VECTOR ( 'NONE', #145, 1000.000000000000000 ) ;
#40 = PLANE ( 'NONE',  #295 ) ;
#41 = ADVANCED_FACE ( 'NONE', ( #169 ), #5, .F. ) ;
#42 = AXIS2_PLACEMENT_3D ( 'NONE', #115, #151, #226 ) ;
#43 = LOCAL_TIME ( 12, 5, 6.000000000000000000, #189 ) ;
#44 = CARTESIAN_POINT ( 'NONE',  ( 0.000000000000000000, 0.000000000000000000, 403.0000000000000000 ) ) ;
#45 = ORIENTED_EDGE ( 'NONE', *, *, #182, .F. ) ;
#46 = VERTEX_POINT ( 'NONE', #170 ) ;
#47 = AXIS2_PLACEMENT_3D ( 'NONE', #29, #218, #237 ) ;
#48 = PERSON_AND_ORGANIZATION_ROLE ( 'creator' ) ;
#49 = AXIS2_PLACEMENT_3D ( 'NONE', #297, #300, #276 ) ;
#50 = EDGE_CURVE ( 'NONE', #243, #143, #264, .T. ) ;
#51 = PERSON_AND_ORGANIZATION ( #262, #106 ) ;
#52 = APPROVAL_DATE_TIME ( #280, #130 ) ;
#53 = EDGE_LOOP ( 'NONE', ( #168, #290, #129, #71 ) ) ;
#54 = ADVANCED_BREP_SHAPE_REPRESENTATION ( 'c6f8', ( #216, #55 ), #167 ) ;
#55 = AXIS2_PLACEMENT_3D ( 'NONE', #165, #138, #232 ) ;
#56 = CARTESIAN_POINT ( 'NONE',  ( 2.250000000000000000, 2.755455298081544285E-16, 403.0000000000000000 ) ) ;
#57 = UNCERTAINTY_MEASURE_WITH_UNIT (LENGTH_MEASURE( 1.000000000000000082E-05 ), #100, 'distance_accuracy_value', 'NONE');
#58 = LINE ( 'NONE', #217, #164 ) ;
#59 = ORIENTED_EDGE ( 'NONE', *, *, #23, .F. ) ;
#60 = DESIGN_CONTEXT ( 'detailed design', #195, 'design' ) ;
#61 = TOROIDAL_SURFACE ( 'NONE', #102, 2.449999999999999734, 0.2000000000000000111 ) ;
#62 = ORIENTED_EDGE ( 'NONE', *, *, #30, .F. ) ;
#63 = CC_DESIGN_APPROVAL ( #242, ( #225 ) ) ;
#64 = DIRECTION ( 'NONE',  ( -1.000000000000000000, 1.224646799147353207E-16, 0.000000000000000000 ) ) ;
#65 = DATE_AND_TIME ( #245, #287 ) ;
#66 = DIRECTION ( 'NONE',  ( 0.000000000000000000, 0.000000000000000000, 1.000000000000000000 ) ) ;
#67 = DIRECTION ( 'NONE',  ( 0.000000000000000000, 0.000000000000000000, 1.000000000000000000 ) ) ;
#68 = CARTESIAN_POINT ( 'NONE',  ( 2.449999999999999734, 0.000000000000000000, 3.199999999999980638 ) ) ;
#69 = FACE_BOUND ( 'NONE', #103, .T. ) ;
#70 =( NAMED_UNIT ( * ) SI_UNIT ( $, .STERADIAN. ) SOLID_ANGLE_UNIT ( ) );
#71 = ORIENTED_EDGE ( 'NONE', *, *, #89, .F. ) ;
#72 = PERSON_AND_ORGANIZATION ( #262, #106 ) ;
#73 = ORIENTED_EDGE ( 'NONE', *, *, #4, .F. ) ;
#74 = DATE_TIME_ROLE ( 'creation_date' ) ;
#75 = ORIENTED_EDGE ( 'NONE', *, *, #141, .T. ) ;
#76 = ADVANCED_FACE ( 'NONE', ( #171 ), #251, .F. ) ;
#77 = CALENDAR_DATE ( 2022, 20, 6 ) ;
#78 = CC_DESIGN_DATE_AND_TIME_ASSIGNMENT ( #301, #74, ( #255 ) ) ;
#79 = CARTESIAN_POINT ( 'NONE',  ( 0.000000000000000000, 0.000000000000000000, 3.000000000000000000 ) ) ;
#80 = PRODUCT ( 'c6f8', 'c6f8', '', ( #258 ) ) ;
#81 = CIRCLE ( 'NONE', #285, 2.250000000000000000 ) ;
#82 = DIRECTION ( 'NONE',  ( 0.000000000000000000, 0.000000000000000000, 1.000000000000000000 ) ) ;
#83 = FACE_OUTER_BOUND ( 'NONE', #279, .T. ) ;
#84 = EDGE_LOOP ( 'NONE', ( #188, #244 ) ) ;
#85 = DIRECTION ( 'NONE',  ( 1.000000000000000000, 0.000000000000000000, 0.000000000000000000 ) ) ;
#86 = CIRCLE ( 'NONE', #241, 4.000000000000000000 ) ;
#87 = CARTESIAN_POINT ( 'NONE',  ( 0.000000000000000000, 0.000000000000000000, 3.000000000000000000 ) ) ;
#88 = CYLINDRICAL_SURFACE ( 'NONE', #111, 4.000000000000000000 ) ;
#89 = EDGE_CURVE ( 'NONE', #2, #205, #58, .T. ) ;
#90 = CARTESIAN_POINT ( 'NONE',  ( 0.000000000000000000, 0.000000000000000000, 3.000000000000000000 ) ) ;
#91 = CARTESIAN_POINT ( 'NONE',  ( -2.250000000000000000, 0.000000000000000000, 403.0000000000000000 ) ) ;
#92 = ADVANCED_FACE ( 'NONE', ( #69, #293 ), #40, .T. ) ;
#93 = DIRECTION ( 'NONE',  ( 1.000000000000000000, 0.000000000000000000, 0.000000000000000000 ) ) ;
#94 = PERSON_AND_ORGANIZATION ( #262, #106 ) ;
#95 = DATE_AND_TIME ( #234, #176 ) ;
#96 = ORIENTED_EDGE ( 'NONE', *, *, #185, .F. ) ;
#97 = CIRCLE ( 'NONE', #149, 2.250000000000000000 ) ;
#98 = LOCAL_TIME ( 12, 5, 6.000000000000000000, #210 ) ;
#99 = EDGE_CURVE ( 'NONE', #20, #2, #86, .T. ) ;
#100 =( LENGTH_UNIT ( ) NAMED_UNIT ( * ) SI_UNIT ( .MILLI., .METRE. ) );
#101 = ORIENTED_EDGE ( 'NONE', *, *, #99, .T. ) ;
#102 = AXIS2_PLACEMENT_3D ( 'NONE', #180, #67, #112 ) ;
#103 = EDGE_LOOP ( 'NONE', ( #208, #105 ) ) ;
#104 = CARTESIAN_POINT ( 'NONE',  ( 0.000000000000000000, 0.000000000000000000, 403.0000000000000000 ) ) ;
#105 = ORIENTED_EDGE ( 'NONE', *, *, #266, .T. ) ;
#106 = ORGANIZATION ( 'NEURÈENÝ', 'NEURÈENÝ', '' ) ;
#107 = ORIENTED_EDGE ( 'NONE', *, *, #50, .T. ) ;
#108 = CARTESIAN_POINT ( 'NONE',  ( 0.000000000000000000, 0.000000000000000000, 0.000000000000000000 ) ) ;
#109 = CARTESIAN_POINT ( 'NONE',  ( 4.000000000000000000, 4.898587196589412829E-16, 3.000000000000000000 ) ) ;
#110 = CC_DESIGN_PERSON_AND_ORGANIZATION_ASSIGNMENT ( #21, #117, ( #255 ) ) ;
#111 = AXIS2_PLACEMENT_3D ( 'NONE', #152, #223, #37 ) ;
#112 = DIRECTION ( 'NONE',  ( 1.000000000000000000, 0.000000000000000000, 0.000000000000000000 ) ) ;
#113 = DIRECTION ( 'NONE',  ( 1.224646799147353207E-16, 1.000000000000000000, -0.000000000000000000 ) ) ;
#114 = DIRECTION ( 'NONE',  ( -0.000000000000000000, -0.000000000000000000, -1.000000000000000000 ) ) ;
#115 = CARTESIAN_POINT ( 'NONE',  ( 0.000000000000000000, 0.000000000000000000, 403.0000000000000000 ) ) ;
#116 = DATE_AND_TIME ( #235, #275 ) ;
#117 = PERSON_AND_ORGANIZATION_ROLE ( 'creator' ) ;
#118 = ORIENTED_EDGE ( 'NONE', *, *, #35, .T. ) ;
#119 = APPROVAL_ROLE ( '' ) ;
#120 = APPLICATION_PROTOCOL_DEFINITION ( 'international standard', 'config_control_design', 1994, #273 ) ;
#121 = PERSON_AND_ORGANIZATION ( #262, #106 ) ;
#122 = ORIENTED_EDGE ( 'NONE', *, *, #190, .T. ) ;
#123 = CIRCLE ( 'NONE', #257, 4.000000000000000000 ) ;
#124 = DIRECTION ( 'NONE',  ( 0.000000000000000000, 0.000000000000000000, 1.000000000000000000 ) ) ;
#125 = DIRECTION ( 'NONE',  ( 1.000000000000000000, 0.000000000000000000, -0.000000000000000000 ) ) ;
#126 = EDGE_CURVE ( 'NONE', #206, #46, #221, .T. ) ;
#127 = DIRECTION ( 'NONE',  ( 1.000000000000000000, 0.000000000000000000, 0.000000000000000000 ) ) ;
#128 = EDGE_LOOP ( 'NONE', ( #268, #19, #6, #7 ) ) ;
#129 = ORIENTED_EDGE ( 'NONE', *, *, #137, .T. ) ;
#130 = APPROVAL ( #157, 'NEURÈENÝ' ) ;
#131 = FACE_OUTER_BOUND ( 'NONE', #261, .T. ) ;
#132 = CARTESIAN_POINT ( 'NONE',  ( 0.000000000000000000, 0.000000000000000000, 403.0000000000000000 ) ) ;
#133 = FACE_OUTER_BOUND ( 'NONE', #84, .T. ) ;
#134 = DIRECTION ( 'NONE',  ( 1.000000000000000000, 0.000000000000000000, -0.000000000000000000 ) ) ;
#135 = CARTESIAN_POINT ( 'NONE',  ( 0.000000000000000000, 0.000000000000000000, 3.000000000000000000 ) ) ;
#136 = ORIENTED_EDGE ( 'NONE', *, *, #126, .F. ) ;
#137 = EDGE_CURVE ( 'NONE', #3, #205, #200, .T. ) ;
#138 = DIRECTION ( 'NONE',  ( 0.000000000000000000, 0.000000000000000000, 1.000000000000000000 ) ) ;
#139 = APPROVAL_PERSON_ORGANIZATION ( #94, #242, #179 ) ;
#140 = APPROVAL_STATUS ( 'not_yet_approved' ) ;
#141 = EDGE_CURVE ( 'NONE', #46, #213, #153, .T. ) ;
#142 = COORDINATED_UNIVERSAL_TIME_OFFSET ( 1, 0, .AHEAD. ) ;
#143 = VERTEX_POINT ( 'NONE', #156 ) ;
#144 = CARTESIAN_POINT ( 'NONE',  ( 4.000000000000000000, 4.898587196589412829E-16, 0.000000000000000000 ) ) ;
#145 = DIRECTION ( 'NONE',  ( -0.000000000000000000, -0.000000000000000000, -1.000000000000000000 ) ) ;
#146 = CC_DESIGN_PERSON_AND_ORGANIZATION_ASSIGNMENT ( #162, #191, ( #33 ) ) ;
#147 = DIRECTION ( 'NONE',  ( -0.000000000000000000, -0.000000000000000000, -1.000000000000000000 ) ) ;
#148 = DIRECTION ( 'NONE',  ( -1.000000000000000000, 0.000000000000000000, 0.000000000000000000 ) ) ;
#149 = AXIS2_PLACEMENT_3D ( 'NONE', #132, #38, #294 ) ;
#150 = ORIENTED_EDGE ( 'NONE', *, *, #137, .F. ) ;
#151 = DIRECTION ( 'NONE',  ( 0.000000000000000000, 0.000000000000000000, 1.000000000000000000 ) ) ;
#152 = CARTESIAN_POINT ( 'NONE',  ( 0.000000000000000000, 0.000000000000000000, 3.000000000000000000 ) ) ;
#153 = CIRCLE ( 'NONE', #233, 0.2000000000000000944 ) ;
#154 = DIRECTION ( 'NONE',  ( -0.000000000000000000, -0.000000000000000000, -1.000000000000000000 ) ) ;
#155 = CYLINDRICAL_SURFACE ( 'NONE', #224, 4.000000000000000000 ) ;
#156 = CARTESIAN_POINT ( 'NONE',  ( 2.250000000000000000, 2.755455298081544285E-16, 3.199999999999980638 ) ) ;
#157 = APPROVAL_STATUS ( 'not_yet_approved' ) ;
#158 = APPROVAL ( #140, 'NEURÈENÝ' ) ;
#159 = DATE_TIME_ROLE ( 'classification_date' ) ;
#160 = VERTEX_POINT ( 'NONE', #252 ) ;
#161 = SHAPE_DEFINITION_REPRESENTATION ( #184, #54 ) ;
#162 = PERSON_AND_ORGANIZATION ( #262, #106 ) ;
#163 = AXIS2_PLACEMENT_3D ( 'NONE', #240, #289, #127 ) ;
#164 = VECTOR ( 'NONE', #114, 1000.000000000000000 ) ;
#165 = CARTESIAN_POINT ( 'NONE',  ( 0.000000000000000000, 0.000000000000000000, 0.000000000000000000 ) ) ;
#166 = AXIS2_PLACEMENT_3D ( 'NONE', #68, #14, #246 ) ;
#167 =( GEOMETRIC_REPRESENTATION_CONTEXT ( 3 ) GLOBAL_UNCERTAINTY_ASSIGNED_CONTEXT ( ( #57 ) ) GLOBAL_UNIT_ASSIGNED_CONTEXT ( ( #100, #278, #70 ) ) REPRESENTATION_CONTEXT ( 'NONE', 'WORKASPACE' ) );
#168 = ORIENTED_EDGE ( 'NONE', *, *, #99, .F. ) ;
#169 = FACE_OUTER_BOUND ( 'NONE', #267, .T. ) ;
#170 = CARTESIAN_POINT ( 'NONE',  ( -2.250000000000000000, 0.000000000000000000, 3.199999999999980638 ) ) ;
#171 = FACE_OUTER_BOUND ( 'NONE', #286, .T. ) ;
#172 = ORIENTED_EDGE ( 'NONE', *, *, #266, .F. ) ;
#173 = CLOSED_SHELL ( 'NONE', ( #76, #13, #271, #212, #92, #41, #8, #288, #219 ) ) ;
#174 = CARTESIAN_POINT ( 'NONE',  ( 4.000000000000000000, 4.898587196589412829E-16, 3.000000000000000000 ) ) ;
#175 = CIRCLE ( 'NONE', #42, 2.250000000000000000 ) ;
#176 = LOCAL_TIME ( 12, 5, 6.000000000000000000, #142 ) ;
#177 = CARTESIAN_POINT ( 'NONE',  ( -2.449999999999999734, 3.000384657911015370E-16, 3.199999999999980638 ) ) ;
#178 = DIRECTION ( 'NONE',  ( -1.000000000000000000, 0.000000000000000000, 0.000000000000000000 ) ) ;
#179 = APPROVAL_ROLE ( '' ) ;
#180 = CARTESIAN_POINT ( 'NONE',  ( 0.000000000000000000, 0.000000000000000000, 3.199999999999980638 ) ) ;
#181 = AXIS2_PLACEMENT_3D ( 'NONE', #108, #198, #85 ) ;
#182 = EDGE_CURVE ( 'NONE', #243, #206, #97, .T. ) ;
#183 = DIRECTION ( 'NONE',  ( 0.000000000000000000, 0.000000000000000000, 1.000000000000000000 ) ) ;
#184 = PRODUCT_DEFINITION_SHAPE ( 'NONE', 'NONE',  #255 ) ;
#185 = EDGE_CURVE ( 'NONE', #160, #213, #192, .T. ) ;
#186 = APPROVAL_STATUS ( 'not_yet_approved' ) ;
#187 = DIRECTION ( 'NONE',  ( 0.000000000000000000, 0.000000000000000000, 1.000000000000000000 ) ) ;
#188 = ORIENTED_EDGE ( 'NONE', *, *, #236, .T. ) ;
#189 = COORDINATED_UNIVERSAL_TIME_OFFSET ( 1, 0, .AHEAD. ) ;
#190 = EDGE_CURVE ( 'NONE', #143, #160, #298, .T. ) ;
#191 = PERSON_AND_ORGANIZATION_ROLE ( 'design_supplier' ) ;
#192 = CIRCLE ( 'NONE', #15, 2.449999999999999734 ) ;
#193 = EDGE_LOOP ( 'NONE', ( #118, #101 ) ) ;
#194 = DIRECTION ( 'NONE',  ( 1.000000000000000000, 0.000000000000000000, 0.000000000000000000 ) ) ;
#195 = APPLICATION_CONTEXT ( 'configuration controlled 3d designs of mechanical parts and assemblies' ) ;
#196 = CARTESIAN_POINT ( 'NONE',  ( -4.000000000000000000, 0.000000000000000000, 3.000000000000000000 ) ) ;
#197 = DIRECTION ( 'NONE',  ( 1.000000000000000000, 0.000000000000000000, 0.000000000000000000 ) ) ;
#198 = DIRECTION ( 'NONE',  ( 0.000000000000000000, 0.000000000000000000, 1.000000000000000000 ) ) ;
#199 = DIRECTION ( 'NONE',  ( 1.000000000000000000, 0.000000000000000000, 0.000000000000000000 ) ) ;
#200 = CIRCLE ( 'NONE', #49, 4.000000000000000000 ) ;
#201 = CARTESIAN_POINT ( 'NONE',  ( -2.250000000000000000, 0.000000000000000000, 403.0000000000000000 ) ) ;
#202 = CARTESIAN_POINT ( 'NONE',  ( -4.000000000000000000, 0.000000000000000000, 0.000000000000000000 ) ) ;
#203 = CARTESIAN_POINT ( 'NONE',  ( 0.000000000000000000, 0.000000000000000000, 3.000000000000000000 ) ) ;
#204 = PERSON_AND_ORGANIZATION ( #262, #106 ) ;
#205 = VERTEX_POINT ( 'NONE', #202 ) ;
#206 = VERTEX_POINT ( 'NONE', #91 ) ;
#207 = PERSON_AND_ORGANIZATION ( #262, #106 ) ;
#208 = ORIENTED_EDGE ( 'NONE', *, *, #185, .T. ) ;
#209 = PRODUCT_RELATED_PRODUCT_CATEGORY ( 'detail', '', ( #80 ) ) ;
#210 = COORDINATED_UNIVERSAL_TIME_OFFSET ( 1, 0, .AHEAD. ) ;
#211 = CC_DESIGN_APPROVAL ( #158, ( #255 ) ) ;
#212 = ADVANCED_FACE ( 'NONE', ( #131 ), #155, .T. ) ;
#213 = VERTEX_POINT ( 'NONE', #270 ) ;
#214 = ORIENTED_EDGE ( 'NONE', *, *, #23, .T. ) ;
#215 = VECTOR ( 'NONE', #283, 1000.000000000000000 ) ;
#216 = MANIFOLD_SOLID_BREP ( 'Zaoblit1', #173 ) ;
#217 = CARTESIAN_POINT ( 'NONE',  ( -4.000000000000000000, 0.000000000000000000, 3.000000000000000000 ) ) ;
#218 = DIRECTION ( 'NONE',  ( -0.000000000000000000, -0.000000000000000000, -1.000000000000000000 ) ) ;
#219 = ADVANCED_FACE ( 'NONE', ( #250 ), #61, .F. ) ;
#220 = ORIENTED_EDGE ( 'NONE', *, *, #190, .F. ) ;
#221 = LINE ( 'NONE', #201, #248 ) ;
#222 = APPROVAL_PERSON_ORGANIZATION ( #51, #158, #229 ) ;
#223 = DIRECTION ( 'NONE',  ( -0.000000000000000000, -0.000000000000000000, -1.000000000000000000 ) ) ;
#224 = AXIS2_PLACEMENT_3D ( 'NONE', #135, #247, #178 ) ;
#225 = SECURITY_CLASSIFICATION ( '', '', #306 ) ;
#226 = DIRECTION ( 'NONE',  ( 1.000000000000000000, 0.000000000000000000, 0.000000000000000000 ) ) ;
#227 = APPLICATION_PROTOCOL_DEFINITION ( 'international standard', 'config_control_design', 1994, #195 ) ;
#228 = ORIENTED_EDGE ( 'NONE', *, *, #141, .F. ) ;
#229 = APPROVAL_ROLE ( '' ) ;
#230 = ORIENTED_EDGE ( 'NONE', *, *, #231, .F. ) ;
#231 = EDGE_CURVE ( 'NONE', #46, #143, #269, .T. ) ;
#232 = DIRECTION ( 'NONE',  ( 1.000000000000000000, 0.000000000000000000, 0.000000000000000000 ) ) ;
#233 = AXIS2_PLACEMENT_3D ( 'NONE', #177, #113, #64 ) ;
#234 = CALENDAR_DATE ( 2022, 20, 6 ) ;
#235 = CALENDAR_DATE ( 2022, 20, 6 ) ;
#236 = EDGE_CURVE ( 'NONE', #206, #243, #175, .T. ) ;
#237 = DIRECTION ( 'NONE',  ( -1.000000000000000000, 0.000000000000000000, 0.000000000000000000 ) ) ;
#238 = AXIS2_PLACEMENT_3D ( 'NONE', #44, #187, #254 ) ;
#239 = CYLINDRICAL_SURFACE ( 'NONE', #28, 2.250000000000000000 ) ;
#240 = CARTESIAN_POINT ( 'NONE',  ( 0.000000000000000000, 0.000000000000000000, 3.199999999999980638 ) ) ;
#241 = AXIS2_PLACEMENT_3D ( 'NONE', #87, #66, #93 ) ;
#242 = APPROVAL ( #186, 'NEURÈENÝ' ) ;
#243 = VERTEX_POINT ( 'NONE', #32 ) ;
#244 = ORIENTED_EDGE ( 'NONE', *, *, #182, .T. ) ;
#245 = CALENDAR_DATE ( 2022, 20, 6 ) ;
#246 = DIRECTION ( 'NONE',  ( 0.000000000000000000, 0.000000000000000000, -1.000000000000000000 ) ) ;
#247 = DIRECTION ( 'NONE',  ( -0.000000000000000000, -0.000000000000000000, -1.000000000000000000 ) ) ;
#248 = VECTOR ( 'NONE', #12, 1000.000000000000000 ) ;
#249 = FACE_OUTER_BOUND ( 'NONE', #53, .T. ) ;
#250 = FACE_OUTER_BOUND ( 'NONE', #305, .T. ) ;
#251 = TOROIDAL_SURFACE ( 'NONE', #163, 2.449999999999999734, 0.2000000000000000111 ) ;
#252 = CARTESIAN_POINT ( 'NONE',  ( 2.449999999999999734, 0.000000000000000000, 2.999999999999990674 ) ) ;
#253 = CIRCLE ( 'NONE', #24, 2.449999999999999734 ) ;
#254 = DIRECTION ( 'NONE',  ( 1.000000000000000000, 0.000000000000000000, -0.000000000000000000 ) ) ;
#255 = PRODUCT_DEFINITION ( 'NEZNÁMÝ', '', #33, #60 ) ;
#256 = PERSON_AND_ORGANIZATION_ROLE ( 'classification_officer' ) ;
#257 = AXIS2_PLACEMENT_3D ( 'NONE', #79, #82, #197 ) ;
#258 = MECHANICAL_CONTEXT ( 'NONE', #273, 'mechanical' ) ;
#259 = PERSON_AND_ORGANIZATION_ROLE ( 'design_owner' ) ;
#260 = CC_DESIGN_PERSON_AND_ORGANIZATION_ASSIGNMENT ( #207, #259, ( #80 ) ) ;
#261 = EDGE_LOOP ( 'NONE', ( #62, #26, #22, #214 ) ) ;
#262 = PERSON ( 'NEURÈENÝ', 'NEURÈENÝ', 'NEURÈENÝ', ('NEURÈENÝ'), ('NEURÈENÝ'), ('NEURÈENÝ') ) ;
#263 = CYLINDRICAL_SURFACE ( 'NONE', #47, 2.250000000000000000 ) ;
#264 = LINE ( 'NONE', #56, #39 ) ;
#265 = CC_DESIGN_APPROVAL ( #130, ( #33 ) ) ;
#266 = EDGE_CURVE ( 'NONE', #213, #160, #253, .T. ) ;
#267 = EDGE_LOOP ( 'NONE', ( #59, #150 ) ) ;
#268 = ORIENTED_EDGE ( 'NONE', *, *, #50, .F. ) ;
#269 = CIRCLE ( 'NONE', #1, 2.250000000000000000 ) ;
#270 = CARTESIAN_POINT ( 'NONE',  ( -2.449999999999999734, 3.000384657911015370E-16, 2.999999999999990674 ) ) ;
#271 = ADVANCED_FACE ( 'NONE', ( #249 ), #88, .T. ) ;
#272 = DIRECTION ( 'NONE',  ( 1.000000000000000000, 0.000000000000000000, 0.000000000000000000 ) ) ;
#273 = APPLICATION_CONTEXT ( 'configuration controlled 3d designs of mechanical parts and assemblies' ) ;
#274 = DIRECTION ( 'NONE',  ( -0.000000000000000000, -0.000000000000000000, -1.000000000000000000 ) ) ;
#275 = LOCAL_TIME ( 12, 5, 6.000000000000000000, #282 ) ;
#276 = DIRECTION ( 'NONE',  ( 1.000000000000000000, 0.000000000000000000, 0.000000000000000000 ) ) ;
#277 = CALENDAR_DATE ( 2022, 20, 6 ) ;
#278 =( NAMED_UNIT ( * ) PLANE_ANGLE_UNIT ( ) SI_UNIT ( $, .RADIAN. ) );
#279 = EDGE_LOOP ( 'NONE', ( #45, #107, #302, #136 ) ) ;
#280 = DATE_AND_TIME ( #77, #98 ) ;
#281 = CC_DESIGN_DATE_AND_TIME_ASSIGNMENT ( #116, #159, ( #225 ) ) ;
#282 = COORDINATED_UNIVERSAL_TIME_OFFSET ( 1, 0, .AHEAD. ) ;
#283 = DIRECTION ( 'NONE',  ( -0.000000000000000000, -0.000000000000000000, -1.000000000000000000 ) ) ;
#284 = FACE_OUTER_BOUND ( 'NONE', #128, .T. ) ;
#285 = AXIS2_PLACEMENT_3D ( 'NONE', #31, #9, #194 ) ;
#286 = EDGE_LOOP ( 'NONE', ( #230, #75, #96, #220 ) ) ;
#287 = LOCAL_TIME ( 12, 5, 6.000000000000000000, #36 ) ;
#288 = ADVANCED_FACE ( 'NONE', ( #133 ), #304, .T. ) ;
#289 = DIRECTION ( 'NONE',  ( 0.000000000000000000, 0.000000000000000000, 1.000000000000000000 ) ) ;
#290 = ORIENTED_EDGE ( 'NONE', *, *, #30, .T. ) ;
#291 = CARTESIAN_POINT ( 'NONE',  ( 0.000000000000000000, 0.000000000000000000, 3.199999999999980638 ) ) ;
#292 = APPROVAL_PERSON_ORGANIZATION ( #121, #130, #119 ) ;
#293 = FACE_OUTER_BOUND ( 'NONE', #193, .T. ) ;
#294 = DIRECTION ( 'NONE',  ( 1.000000000000000000, 0.000000000000000000, 0.000000000000000000 ) ) ;
#295 = AXIS2_PLACEMENT_3D ( 'NONE', #203, #183, #134 ) ;
#296 = AXIS2_PLACEMENT_3D ( 'NONE', #25, #124, #125 ) ;
#297 = CARTESIAN_POINT ( 'NONE',  ( 0.000000000000000000, 0.000000000000000000, 0.000000000000000000 ) ) ;
#298 = CIRCLE ( 'NONE', #166, 0.2000000000000000944 ) ;
#299 = CC_DESIGN_PERSON_AND_ORGANIZATION_ASSIGNMENT ( #204, #256, ( #225 ) ) ;
#300 = DIRECTION ( 'NONE',  ( 0.000000000000000000, 0.000000000000000000, 1.000000000000000000 ) ) ;
#301 = DATE_AND_TIME ( #277, #43 ) ;
#302 = ORIENTED_EDGE ( 'NONE', *, *, #4, .T. ) ;
#303 = CC_DESIGN_SECURITY_CLASSIFICATION ( #225, ( #33 ) ) ;
#304 = PLANE ( 'NONE',  #238 ) ;
#305 = EDGE_LOOP ( 'NONE', ( #228, #73, #122, #172 ) ) ;
#306 = SECURITY_CLASSIFICATION_LEVEL ( 'unclassified' ) ;
#307 = CIRCLE ( 'NONE', #181, 4.000000000000000000 ) ;
ENDSEC;
END-ISO-10303-21;
