ISO-10303-21;
HEADER;
FILE_DESCRIPTION (( 'STEP AP203' ),
    '1' );
FILE_NAME ('b58d.STEP',
    '2022-06-20T09:22:19',
    ( '' ),
    ( '' ),
    'SwSTEP 2.0',
    'SolidWorks 2019',
    '' );
FILE_SCHEMA (( 'CONFIG_CONTROL_DESIGN' ));
ENDSEC;

DATA;
#1 = DIRECTION ( 'NONE',  ( 1.000000000000000000, 0.000000000000000000, -0.000000000000000000 ) ) ;
#2 = LOCAL_TIME ( 11, 22, 19.00000000000000000, #244 ) ;
#3 = CARTESIAN_POINT ( 'NONE',  ( 9.199999999999999289, 0.000000000000000000, 7.200000000000011724 ) ) ;
#4 = EDGE_CURVE ( 'NONE', #240, #272, #34, .T. ) ;
#5 = DIRECTION ( 'NONE',  ( 0.000000000000000000, 0.000000000000000000, 1.000000000000000000 ) ) ;
#6 = CARTESIAN_POINT ( 'NONE',  ( 0.000000000000000000, 0.000000000000000000, 207.0000000000000284 ) ) ;
#7 = CARTESIAN_POINT ( 'NONE',  ( 0.000000000000000000, 0.000000000000000000, 7.200000000000011724 ) ) ;
#8 = CC_DESIGN_PERSON_AND_ORGANIZATION_ASSIGNMENT ( #190, #77, ( #23 ) ) ;
#9 = ORIENTED_EDGE ( 'NONE', *, *, #256, .F. ) ;
#10 = VERTEX_POINT ( 'NONE', #245 ) ;
#11 = EDGE_CURVE ( 'NONE', #101, #272, #76, .T. ) ;
#12 = PERSON_AND_ORGANIZATION ( #302, #235 ) ;
#13 = ORIENTED_EDGE ( 'NONE', *, *, #118, .T. ) ;
#14 = CALENDAR_DATE ( 2022, 20, 6 ) ;
#15 = ORIENTED_EDGE ( 'NONE', *, *, #67, .T. ) ;
#16 = AXIS2_PLACEMENT_3D ( 'NONE', #288, #212, #117 ) ;
#17 = DIRECTION ( 'NONE',  ( 0.000000000000000000, 0.000000000000000000, 1.000000000000000000 ) ) ;
#18 = EDGE_CURVE ( 'NONE', #275, #201, #277, .T. ) ;
#19 = DIRECTION ( 'NONE',  ( 1.000000000000000000, 0.000000000000000000, 0.000000000000000000 ) ) ;
#20 = PLANE ( 'NONE',  #278 ) ;
#21 = AXIS2_PLACEMENT_3D ( 'NONE', #71, #22, #88 ) ;
#22 = DIRECTION ( 'NONE',  ( 0.000000000000000000, 0.000000000000000000, 1.000000000000000000 ) ) ;
#23 = PRODUCT ( 'b58d', 'b58d', '', ( #75 ) ) ;
#24 = CARTESIAN_POINT ( 'NONE',  ( -9.199999999999999289, 1.126675055215564822E-15, 7.200000000000011724 ) ) ;
#25 = CARTESIAN_POINT ( 'NONE',  ( 0.000000000000000000, 0.000000000000000000, 7.200000000000011724 ) ) ;
#26 = DIRECTION ( 'NONE',  ( -0.000000000000000000, -0.000000000000000000, -1.000000000000000000 ) ) ;
#27 = ORIENTED_EDGE ( 'NONE', *, *, #179, .T. ) ;
#28 = PERSON_AND_ORGANIZATION ( #302, #235 ) ;
#29 = ORIENTED_EDGE ( 'NONE', *, *, #111, .T. ) ;
#30 = CLOSED_SHELL ( 'NONE', ( #203, #156, #285, #116, #59, #196, #151, #174, #47 ) ) ;
#31 = APPROVAL_DATE_TIME ( #85, #74 ) ;
#32 = ORIENTED_EDGE ( 'NONE', *, *, #168, .T. ) ;
#33 = CC_DESIGN_APPROVAL ( #97, ( #133 ) ) ;
#34 = LINE ( 'NONE', #58, #205 ) ;
#35 = MANIFOLD_SOLID_BREP ( 'Zaoblit1', #30 ) ;
#36 = PERSON_AND_ORGANIZATION_ROLE ( 'classification_officer' ) ;
#37 = EDGE_LOOP ( 'NONE', ( #9, #292, #123, #217 ) ) ;
#38 = DIRECTION ( 'NONE',  ( 0.000000000000000000, 0.000000000000000000, 1.000000000000000000 ) ) ;
#39 =( GEOMETRIC_REPRESENTATION_CONTEXT ( 3 ) GLOBAL_UNCERTAINTY_ASSIGNED_CONTEXT ( ( #180 ) ) GLOBAL_UNIT_ASSIGNED_CONTEXT ( ( #98, #234, #236 ) ) REPRESENTATION_CONTEXT ( 'NONE', 'WORKASPACE' ) );
#40 = DIRECTION ( 'NONE',  ( -0.000000000000000000, -0.000000000000000000, -1.000000000000000000 ) ) ;
#41 = DIRECTION ( 'NONE',  ( 1.000000000000000000, 0.000000000000000000, -0.000000000000000000 ) ) ;
#42 = DIRECTION ( 'NONE',  ( 0.000000000000000000, 0.000000000000000000, 1.000000000000000000 ) ) ;
#43 = CC_DESIGN_PERSON_AND_ORGANIZATION_ASSIGNMENT ( #122, #36, ( #296 ) ) ;
#44 = CARTESIAN_POINT ( 'NONE',  ( 0.000000000000000000, 0.000000000000000000, 7.200000000000011724 ) ) ;
#45 = APPLICATION_PROTOCOL_DEFINITION ( 'international standard', 'config_control_design', 1994, #178 ) ;
#46 = CARTESIAN_POINT ( 'NONE',  ( 9.000000000000000000, 1.102182119232617714E-15, 207.0000000000000284 ) ) ;
#47 = ADVANCED_FACE ( 'NONE', ( #134 ), #267, .F. ) ;
#48 = DIRECTION ( 'NONE',  ( 0.000000000000000000, 0.000000000000000000, 1.000000000000000000 ) ) ;
#49 = AXIS2_PLACEMENT_3D ( 'NONE', #141, #266, #237 ) ;
#50 = COORDINATED_UNIVERSAL_TIME_OFFSET ( 1, 0, .AHEAD. ) ;
#51 = FACE_OUTER_BOUND ( 'NONE', #37, .T. ) ;
#52 = EDGE_CURVE ( 'NONE', #201, #10, #166, .T. ) ;
#53 = APPROVAL_DATE_TIME ( #193, #291 ) ;
#54 = CIRCLE ( 'NONE', #16, 12.00000000000000178 ) ;
#55 = CALENDAR_DATE ( 2022, 20, 6 ) ;
#56 = ORIENTED_EDGE ( 'NONE', *, *, #307, .T. ) ;
#57 = SECURITY_CLASSIFICATION_LEVEL ( 'unclassified' ) ;
#58 = CARTESIAN_POINT ( 'NONE',  ( -12.00000000000000178, 0.000000000000000000, 7.000000000000000000 ) ) ;
#59 = ADVANCED_FACE ( 'NONE', ( #135, #230 ), #91, .T. ) ;
#60 = ADVANCED_BREP_SHAPE_REPRESENTATION ( 'b58d', ( #35, #131 ), #39 ) ;
#61 = APPROVAL_DATE_TIME ( #124, #97 ) ;
#62 = ORIENTED_EDGE ( 'NONE', *, *, #207, .F. ) ;
#63 = LOCAL_TIME ( 11, 22, 19.00000000000000000, #50 ) ;
#64 = ORIENTED_EDGE ( 'NONE', *, *, #100, .T. ) ;
#65 = CYLINDRICAL_SURFACE ( 'NONE', #211, 9.000000000000000000 ) ;
#66 = DESIGN_CONTEXT ( 'detailed design', #80, 'design' ) ;
#67 = EDGE_CURVE ( 'NONE', #82, #247, #287, .T. ) ;
#68 = CARTESIAN_POINT ( 'NONE',  ( -9.199999999999999289, 1.126675055215564822E-15, 7.000000000000006217 ) ) ;
#69 = AXIS2_PLACEMENT_3D ( 'NONE', #3, #192, #216 ) ;
#70 = DIRECTION ( 'NONE',  ( -0.000000000000000000, -0.000000000000000000, -1.000000000000000000 ) ) ;
#71 = CARTESIAN_POINT ( 'NONE',  ( 0.000000000000000000, 0.000000000000000000, 0.000000000000000000 ) ) ;
#72 = EDGE_CURVE ( 'NONE', #99, #101, #94, .T. ) ;
#73 = CARTESIAN_POINT ( 'NONE',  ( 0.000000000000000000, 0.000000000000000000, 207.0000000000000284 ) ) ;
#74 = APPROVAL ( #146, 'NEURÈENÝ' ) ;
#75 = MECHANICAL_CONTEXT ( 'NONE', #178, 'mechanical' ) ;
#76 = CIRCLE ( 'NONE', #119, 12.00000000000000178 ) ;
#77 = PERSON_AND_ORGANIZATION_ROLE ( 'design_owner' ) ;
#78 = CALENDAR_DATE ( 2022, 20, 6 ) ;
#79 = EDGE_LOOP ( 'NONE', ( #220, #64, #126, #195 ) ) ;
#80 = APPLICATION_CONTEXT ( 'configuration controlled 3d designs of mechanical parts and assemblies' ) ;
#81 = PERSON_AND_ORGANIZATION ( #302, #235 ) ;
#82 = VERTEX_POINT ( 'NONE', #68 ) ;
#83 = EDGE_LOOP ( 'NONE', ( #29, #15 ) ) ;
#84 = AXIS2_PLACEMENT_3D ( 'NONE', #228, #92, #184 ) ;
#85 = DATE_AND_TIME ( #78, #108 ) ;
#86 = DIRECTION ( 'NONE',  ( -0.000000000000000000, -0.000000000000000000, -1.000000000000000000 ) ) ;
#87 = EDGE_LOOP ( 'NONE', ( #173, #297, #56, #147 ) ) ;
#88 = DIRECTION ( 'NONE',  ( 1.000000000000000000, 0.000000000000000000, 0.000000000000000000 ) ) ;
#89 = CARTESIAN_POINT ( 'NONE',  ( 0.000000000000000000, 0.000000000000000000, 7.000000000000000000 ) ) ;
#90 = CIRCLE ( 'NONE', #284, 12.00000000000000178 ) ;
#91 = PLANE ( 'NONE',  #258 ) ;
#92 = DIRECTION ( 'NONE',  ( -0.000000000000000000, -0.000000000000000000, -1.000000000000000000 ) ) ;
#93 = VECTOR ( 'NONE', #40, 1000.000000000000000 ) ;
#94 = LINE ( 'NONE', #114, #282 ) ;
#95 = CYLINDRICAL_SURFACE ( 'NONE', #49, 12.00000000000000178 ) ;
#96 = CARTESIAN_POINT ( 'NONE',  ( -9.000000000000000000, 0.000000000000000000, 207.0000000000000284 ) ) ;
#97 = APPROVAL ( #138, 'NEURÈENÝ' ) ;
#98 =( LENGTH_UNIT ( ) NAMED_UNIT ( * ) SI_UNIT ( .MILLI., .METRE. ) );
#99 = VERTEX_POINT ( 'NONE', #280 ) ;
#100 = EDGE_CURVE ( 'NONE', #201, #82, #210, .T. ) ;
#101 = VERTEX_POINT ( 'NONE', #225 ) ;
#102 = EDGE_LOOP ( 'NONE', ( #32, #170 ) ) ;
#103 = DATE_AND_TIME ( #273, #2 ) ;
#104 = ORIENTED_EDGE ( 'NONE', *, *, #179, .F. ) ;
#105 = AXIS2_PLACEMENT_3D ( 'NONE', #305, #110, #109 ) ;
#106 = ORIENTED_EDGE ( 'NONE', *, *, #72, .F. ) ;
#107 = AXIS2_PLACEMENT_3D ( 'NONE', #73, #38, #255 ) ;
#108 = LOCAL_TIME ( 11, 22, 19.00000000000000000, #290 ) ;
#109 = DIRECTION ( 'NONE',  ( 1.000000000000000000, 0.000000000000000000, 0.000000000000000000 ) ) ;
#110 = DIRECTION ( 'NONE',  ( -0.000000000000000000, -0.000000000000000000, -1.000000000000000000 ) ) ;
#111 = EDGE_CURVE ( 'NONE', #247, #82, #155, .T. ) ;
#112 = PLANE ( 'NONE',  #283 ) ;
#113 = CARTESIAN_POINT ( 'NONE',  ( 0.000000000000000000, 0.000000000000000000, 7.000000000000000000 ) ) ;
#114 = CARTESIAN_POINT ( 'NONE',  ( 12.00000000000000178, 1.469576158976824144E-15, 7.000000000000000000 ) ) ;
#115 = DIRECTION ( 'NONE',  ( 0.000000000000000000, 0.000000000000000000, 1.000000000000000000 ) ) ;
#116 = ADVANCED_FACE ( 'NONE', ( #227 ), #252, .T. ) ;
#117 = DIRECTION ( 'NONE',  ( 1.000000000000000000, 0.000000000000000000, 0.000000000000000000 ) ) ;
#118 = EDGE_CURVE ( 'NONE', #272, #101, #251, .T. ) ;
#119 = AXIS2_PLACEMENT_3D ( 'NONE', #176, #276, #153 ) ;
#120 = TOROIDAL_SURFACE ( 'NONE', #269, 9.199999999999999289, 0.2000000000000000111 ) ;
#121 = CARTESIAN_POINT ( 'NONE',  ( -9.000000000000000000, 0.000000000000000000, 7.200000000000011724 ) ) ;
#122 = PERSON_AND_ORGANIZATION ( #302, #235 ) ;
#123 = ORIENTED_EDGE ( 'NONE', *, *, #11, .T. ) ;
#124 = DATE_AND_TIME ( #55, #63 ) ;
#125 = PRODUCT_DEFINITION_FORMATION_WITH_SPECIFIED_SOURCE ( 'LIBOVOLNÝ', '', #23, .NOT_KNOWN. ) ;
#126 = ORIENTED_EDGE ( 'NONE', *, *, #111, .F. ) ;
#127 = DATE_AND_TIME ( #218, #301 ) ;
#128 = ORIENTED_EDGE ( 'NONE', *, *, #52, .T. ) ;
#129 = PERSON_AND_ORGANIZATION_ROLE ( 'creator' ) ;
#130 = CARTESIAN_POINT ( 'NONE',  ( 0.000000000000000000, 0.000000000000000000, 207.0000000000000284 ) ) ;
#131 = AXIS2_PLACEMENT_3D ( 'NONE', #189, #140, #286 ) ;
#132 = DIRECTION ( 'NONE',  ( 1.000000000000000000, 0.000000000000000000, 0.000000000000000000 ) ) ;
#133 = PRODUCT_DEFINITION ( 'NEZNÁMÝ', '', #125, #66 ) ;
#134 = FACE_OUTER_BOUND ( 'NONE', #197, .T. ) ;
#135 = FACE_BOUND ( 'NONE', #83, .T. ) ;
#136 = CARTESIAN_POINT ( 'NONE',  ( -9.000000000000000000, 0.000000000000000000, 207.0000000000000284 ) ) ;
#137 = DIRECTION ( 'NONE',  ( 1.000000000000000000, 0.000000000000000000, 0.000000000000000000 ) ) ;
#138 = APPROVAL_STATUS ( 'not_yet_approved' ) ;
#139 = CIRCLE ( 'NONE', #253, 9.000000000000000000 ) ;
#140 = DIRECTION ( 'NONE',  ( 0.000000000000000000, 0.000000000000000000, 1.000000000000000000 ) ) ;
#141 = CARTESIAN_POINT ( 'NONE',  ( 0.000000000000000000, 0.000000000000000000, 7.000000000000000000 ) ) ;
#142 = DIRECTION ( 'NONE',  ( 1.000000000000000000, 0.000000000000000000, 0.000000000000000000 ) ) ;
#143 = COORDINATED_UNIVERSAL_TIME_OFFSET ( 1, 0, .AHEAD. ) ;
#144 = ORIENTED_EDGE ( 'NONE', *, *, #18, .T. ) ;
#145 = ORIENTED_EDGE ( 'NONE', *, *, #118, .F. ) ;
#146 = APPROVAL_STATUS ( 'not_yet_approved' ) ;
#147 = ORIENTED_EDGE ( 'NONE', *, *, #18, .F. ) ;
#148 = DATE_TIME_ROLE ( 'creation_date' ) ;
#149 = APPROVAL_PERSON_ORGANIZATION ( #223, #291, #248 ) ;
#150 = ORIENTED_EDGE ( 'NONE', *, *, #256, .T. ) ;
#151 = ADVANCED_FACE ( 'NONE', ( #204 ), #65, .T. ) ;
#152 = PERSON_AND_ORGANIZATION_ROLE ( 'creator' ) ;
#153 = DIRECTION ( 'NONE',  ( 1.000000000000000000, 0.000000000000000000, 0.000000000000000000 ) ) ;
#154 = CYLINDRICAL_SURFACE ( 'NONE', #239, 9.000000000000000000 ) ;
#155 = CIRCLE ( 'NONE', #198, 9.199999999999999289 ) ;
#156 = ADVANCED_FACE ( 'NONE', ( #304 ), #154, .T. ) ;
#157 = DIRECTION ( 'NONE',  ( -1.000000000000000000, 0.000000000000000000, 0.000000000000000000 ) ) ;
#158 = DIRECTION ( 'NONE',  ( -1.000000000000000000, 0.000000000000000000, 0.000000000000000000 ) ) ;
#159 = FACE_OUTER_BOUND ( 'NONE', #102, .T. ) ;
#160 = CIRCLE ( 'NONE', #107, 9.000000000000000000 ) ;
#161 = PERSON_AND_ORGANIZATION ( #302, #235 ) ;
#162 = FACE_OUTER_BOUND ( 'NONE', #79, .T. ) ;
#163 = APPROVAL_PERSON_ORGANIZATION ( #161, #97, #264 ) ;
#164 = APPLICATION_PROTOCOL_DEFINITION ( 'international standard', 'config_control_design', 1994, #80 ) ;
#165 = CARTESIAN_POINT ( 'NONE',  ( 9.000000000000000000, 1.102182119232617714E-15, 207.0000000000000284 ) ) ;
#166 = CIRCLE ( 'NONE', #243, 9.000000000000000000 ) ;
#167 = APPROVAL_ROLE ( '' ) ;
#168 = EDGE_CURVE ( 'NONE', #275, #242, #160, .T. ) ;
#169 = CC_DESIGN_APPROVAL ( #291, ( #125 ) ) ;
#170 = ORIENTED_EDGE ( 'NONE', *, *, #226, .T. ) ;
#171 = COORDINATED_UNIVERSAL_TIME_OFFSET ( 1, 0, .AHEAD. ) ;
#172 = ORIENTED_EDGE ( 'NONE', *, *, #67, .F. ) ;
#173 = ORIENTED_EDGE ( 'NONE', *, *, #226, .F. ) ;
#174 = ADVANCED_FACE ( 'NONE', ( #159 ), #112, .T. ) ;
#175 = CIRCLE ( 'NONE', #69, 0.1999999999999996503 ) ;
#176 = CARTESIAN_POINT ( 'NONE',  ( 0.000000000000000000, 0.000000000000000000, 0.000000000000000000 ) ) ;
#177 = EDGE_LOOP ( 'NONE', ( #27, #150 ) ) ;
#178 = APPLICATION_CONTEXT ( 'configuration controlled 3d designs of mechanical parts and assemblies' ) ;
#179 = EDGE_CURVE ( 'NONE', #240, #99, #90, .T. ) ;
#180 = UNCERTAINTY_MEASURE_WITH_UNIT (LENGTH_MEASURE( 1.000000000000000082E-05 ), #98, 'distance_accuracy_value', 'NONE');
#181 = CARTESIAN_POINT ( 'NONE',  ( 0.000000000000000000, 0.000000000000000000, 0.000000000000000000 ) ) ;
#182 = DIRECTION ( 'NONE',  ( -0.000000000000000000, -0.000000000000000000, -1.000000000000000000 ) ) ;
#183 = CC_DESIGN_APPROVAL ( #74, ( #296 ) ) ;
#184 = DIRECTION ( 'NONE',  ( -1.000000000000000000, 0.000000000000000000, 0.000000000000000000 ) ) ;
#185 = CARTESIAN_POINT ( 'NONE',  ( 0.000000000000000000, 0.000000000000000000, 207.0000000000000284 ) ) ;
#186 = CC_DESIGN_PERSON_AND_ORGANIZATION_ASSIGNMENT ( #12, #152, ( #125 ) ) ;
#187 = DIRECTION ( 'NONE',  ( 1.000000000000000000, 0.000000000000000000, 0.000000000000000000 ) ) ;
#188 = CARTESIAN_POINT ( 'NONE',  ( 9.199999999999999289, 0.000000000000000000, 7.000000000000006217 ) ) ;
#189 = CARTESIAN_POINT ( 'NONE',  ( 0.000000000000000000, 0.000000000000000000, 0.000000000000000000 ) ) ;
#190 = PERSON_AND_ORGANIZATION ( #302, #235 ) ;
#191 = CC_DESIGN_SECURITY_CLASSIFICATION ( #296, ( #125 ) ) ;
#192 = DIRECTION ( 'NONE',  ( 0.000000000000000000, -1.000000000000000000, 0.000000000000000000 ) ) ;
#193 = DATE_AND_TIME ( #14, #263 ) ;
#194 = APPROVAL_STATUS ( 'not_yet_approved' ) ;
#195 = ORIENTED_EDGE ( 'NONE', *, *, #299, .F. ) ;
#196 = ADVANCED_FACE ( 'NONE', ( #206 ), #20, .F. ) ;
#197 = EDGE_LOOP ( 'NONE', ( #293, #224, #294, #172 ) ) ;
#198 = AXIS2_PLACEMENT_3D ( 'NONE', #89, #182, #187 ) ;
#199 = ORIENTED_EDGE ( 'NONE', *, *, #11, .F. ) ;
#200 = APPROVAL_PERSON_ORGANIZATION ( #221, #74, #167 ) ;
#201 = VERTEX_POINT ( 'NONE', #121 ) ;
#202 = DIRECTION ( 'NONE',  ( 0.000000000000000000, 0.000000000000000000, 1.000000000000000000 ) ) ;
#203 = ADVANCED_FACE ( 'NONE', ( #162 ), #120, .F. ) ;
#204 = FACE_OUTER_BOUND ( 'NONE', #219, .T. ) ;
#205 = VECTOR ( 'NONE', #86, 1000.000000000000000 ) ;
#206 = FACE_OUTER_BOUND ( 'NONE', #274, .T. ) ;
#207 = EDGE_CURVE ( 'NONE', #242, #10, #215, .T. ) ;
#208 = DIRECTION ( 'NONE',  ( -0.000000000000000000, -0.000000000000000000, -1.000000000000000000 ) ) ;
#209 = DIRECTION ( 'NONE',  ( 1.224646799147353207E-16, 1.000000000000000000, -0.000000000000000000 ) ) ;
#210 = CIRCLE ( 'NONE', #250, 0.2000000000000005107 ) ;
#211 = AXIS2_PLACEMENT_3D ( 'NONE', #279, #70, #158 ) ;
#212 = DIRECTION ( 'NONE',  ( 0.000000000000000000, 0.000000000000000000, 1.000000000000000000 ) ) ;
#213 = PRODUCT_DEFINITION_SHAPE ( 'NONE', 'NONE',  #133 ) ;
#214 = DIRECTION ( 'NONE',  ( 0.000000000000000000, 0.000000000000000000, 1.000000000000000000 ) ) ;
#215 = LINE ( 'NONE', #46, #246 ) ;
#216 = DIRECTION ( 'NONE',  ( 0.000000000000000000, 0.000000000000000000, -1.000000000000000000 ) ) ;
#217 = ORIENTED_EDGE ( 'NONE', *, *, #4, .F. ) ;
#218 = CALENDAR_DATE ( 2022, 20, 6 ) ;
#219 = EDGE_LOOP ( 'NONE', ( #62, #222, #144, #128 ) ) ;
#220 = ORIENTED_EDGE ( 'NONE', *, *, #52, .F. ) ;
#221 = PERSON_AND_ORGANIZATION ( #302, #235 ) ;
#222 = ORIENTED_EDGE ( 'NONE', *, *, #168, .F. ) ;
#223 = PERSON_AND_ORGANIZATION ( #302, #235 ) ;
#224 = ORIENTED_EDGE ( 'NONE', *, *, #307, .F. ) ;
#225 = CARTESIAN_POINT ( 'NONE',  ( 12.00000000000000178, 1.469576158976824144E-15, 0.000000000000000000 ) ) ;
#226 = EDGE_CURVE ( 'NONE', #242, #275, #289, .T. ) ;
#227 = FACE_OUTER_BOUND ( 'NONE', #295, .T. ) ;
#228 = CARTESIAN_POINT ( 'NONE',  ( 0.000000000000000000, 0.000000000000000000, 7.000000000000000000 ) ) ;
#229 = CC_DESIGN_DATE_AND_TIME_ASSIGNMENT ( #127, #271, ( #296 ) ) ;
#230 = FACE_OUTER_BOUND ( 'NONE', #177, .T. ) ;
#231 = DIRECTION ( 'NONE',  ( 0.000000000000000000, 0.000000000000000000, 1.000000000000000000 ) ) ;
#232 = CARTESIAN_POINT ( 'NONE',  ( -12.00000000000000178, 0.000000000000000000, 7.000000000000000000 ) ) ;
#233 = PRODUCT_RELATED_PRODUCT_CATEGORY ( 'detail', '', ( #23 ) ) ;
#234 =( NAMED_UNIT ( * ) PLANE_ANGLE_UNIT ( ) SI_UNIT ( $, .RADIAN. ) );
#235 = ORGANIZATION ( 'NEURÈENÝ', 'NEURÈENÝ', '' ) ;
#236 =( NAMED_UNIT ( * ) SI_UNIT ( $, .STERADIAN. ) SOLID_ANGLE_UNIT ( ) );
#237 = DIRECTION ( 'NONE',  ( -1.000000000000000000, 0.000000000000000000, 0.000000000000000000 ) ) ;
#238 = DIRECTION ( 'NONE',  ( 1.000000000000000000, 0.000000000000000000, 0.000000000000000000 ) ) ;
#239 = AXIS2_PLACEMENT_3D ( 'NONE', #185, #281, #157 ) ;
#240 = VERTEX_POINT ( 'NONE', #232 ) ;
#241 = PERSON_AND_ORGANIZATION_ROLE ( 'design_supplier' ) ;
#242 = VERTEX_POINT ( 'NONE', #165 ) ;
#243 = AXIS2_PLACEMENT_3D ( 'NONE', #44, #42, #19 ) ;
#244 = COORDINATED_UNIVERSAL_TIME_OFFSET ( 1, 0, .AHEAD. ) ;
#245 = CARTESIAN_POINT ( 'NONE',  ( 9.000000000000000000, 1.102182119232617714E-15, 7.200000000000011724 ) ) ;
#246 = VECTOR ( 'NONE', #26, 1000.000000000000000 ) ;
#247 = VERTEX_POINT ( 'NONE', #188 ) ;
#248 = APPROVAL_ROLE ( '' ) ;
#249 = ORIENTED_EDGE ( 'NONE', *, *, #4, .T. ) ;
#250 = AXIS2_PLACEMENT_3D ( 'NONE', #24, #209, #300 ) ;
#251 = CIRCLE ( 'NONE', #21, 12.00000000000000178 ) ;
#252 = CYLINDRICAL_SURFACE ( 'NONE', #84, 12.00000000000000178 ) ;
#253 = AXIS2_PLACEMENT_3D ( 'NONE', #25, #5, #142 ) ;
#254 = CARTESIAN_POINT ( 'NONE',  ( 0.000000000000000000, 0.000000000000000000, 7.200000000000011724 ) ) ;
#255 = DIRECTION ( 'NONE',  ( 1.000000000000000000, 0.000000000000000000, 0.000000000000000000 ) ) ;
#256 = EDGE_CURVE ( 'NONE', #99, #240, #54, .T. ) ;
#257 = DIRECTION ( 'NONE',  ( 1.000000000000000000, 0.000000000000000000, 0.000000000000000000 ) ) ;
#258 = AXIS2_PLACEMENT_3D ( 'NONE', #113, #231, #303 ) ;
#259 = CARTESIAN_POINT ( 'NONE',  ( 0.000000000000000000, 0.000000000000000000, 7.000000000000000000 ) ) ;
#260 = AXIS2_PLACEMENT_3D ( 'NONE', #6, #48, #137 ) ;
#261 = CC_DESIGN_DATE_AND_TIME_ASSIGNMENT ( #103, #148, ( #133 ) ) ;
#262 = CARTESIAN_POINT ( 'NONE',  ( -12.00000000000000178, 0.000000000000000000, 0.000000000000000000 ) ) ;
#263 = LOCAL_TIME ( 11, 22, 19.00000000000000000, #171 ) ;
#264 = APPROVAL_ROLE ( '' ) ;
#265 = CC_DESIGN_PERSON_AND_ORGANIZATION_ASSIGNMENT ( #81, #129, ( #133 ) ) ;
#266 = DIRECTION ( 'NONE',  ( -0.000000000000000000, -0.000000000000000000, -1.000000000000000000 ) ) ;
#267 = TOROIDAL_SURFACE ( 'NONE', #306, 9.199999999999999289, 0.2000000000000000111 ) ;
#268 = SHAPE_DEFINITION_REPRESENTATION ( #213, #60 ) ;
#269 = AXIS2_PLACEMENT_3D ( 'NONE', #7, #115, #238 ) ;
#270 = CC_DESIGN_PERSON_AND_ORGANIZATION_ASSIGNMENT ( #28, #241, ( #125 ) ) ;
#271 = DATE_TIME_ROLE ( 'classification_date' ) ;
#272 = VERTEX_POINT ( 'NONE', #262 ) ;
#273 = CALENDAR_DATE ( 2022, 20, 6 ) ;
#274 = EDGE_LOOP ( 'NONE', ( #145, #199 ) ) ;
#275 = VERTEX_POINT ( 'NONE', #96 ) ;
#276 = DIRECTION ( 'NONE',  ( 0.000000000000000000, 0.000000000000000000, 1.000000000000000000 ) ) ;
#277 = LINE ( 'NONE', #136, #93 ) ;
#278 = AXIS2_PLACEMENT_3D ( 'NONE', #181, #214, #1 ) ;
#279 = CARTESIAN_POINT ( 'NONE',  ( 0.000000000000000000, 0.000000000000000000, 207.0000000000000284 ) ) ;
#280 = CARTESIAN_POINT ( 'NONE',  ( 12.00000000000000178, 1.469576158976824144E-15, 7.000000000000000000 ) ) ;
#281 = DIRECTION ( 'NONE',  ( -0.000000000000000000, -0.000000000000000000, -1.000000000000000000 ) ) ;
#282 = VECTOR ( 'NONE', #208, 1000.000000000000000 ) ;
#283 = AXIS2_PLACEMENT_3D ( 'NONE', #130, #202, #41 ) ;
#284 = AXIS2_PLACEMENT_3D ( 'NONE', #259, #17, #132 ) ;
#285 = ADVANCED_FACE ( 'NONE', ( #51 ), #95, .T. ) ;
#286 = DIRECTION ( 'NONE',  ( 1.000000000000000000, 0.000000000000000000, 0.000000000000000000 ) ) ;
#287 = CIRCLE ( 'NONE', #105, 9.199999999999999289 ) ;
#288 = CARTESIAN_POINT ( 'NONE',  ( 0.000000000000000000, 0.000000000000000000, 7.000000000000000000 ) ) ;
#289 = CIRCLE ( 'NONE', #260, 9.000000000000000000 ) ;
#290 = COORDINATED_UNIVERSAL_TIME_OFFSET ( 1, 0, .AHEAD. ) ;
#291 = APPROVAL ( #194, 'NEURÈENÝ' ) ;
#292 = ORIENTED_EDGE ( 'NONE', *, *, #72, .T. ) ;
#293 = ORIENTED_EDGE ( 'NONE', *, *, #100, .F. ) ;
#294 = ORIENTED_EDGE ( 'NONE', *, *, #299, .T. ) ;
#295 = EDGE_LOOP ( 'NONE', ( #106, #104, #249, #13 ) ) ;
#296 = SECURITY_CLASSIFICATION ( '', '', #57 ) ;
#297 = ORIENTED_EDGE ( 'NONE', *, *, #207, .T. ) ;
#298 = DIRECTION ( 'NONE',  ( 0.000000000000000000, 0.000000000000000000, 1.000000000000000000 ) ) ;
#299 = EDGE_CURVE ( 'NONE', #10, #247, #175, .T. ) ;
#300 = DIRECTION ( 'NONE',  ( -1.000000000000000000, 1.224646799147353207E-16, 0.000000000000000000 ) ) ;
#301 = LOCAL_TIME ( 11, 22, 19.00000000000000000, #143 ) ;
#302 = PERSON ( 'NEURÈENÝ', 'NEURÈENÝ', 'NEURÈENÝ', ('NEURÈENÝ'), ('NEURÈENÝ'), ('NEURÈENÝ') ) ;
#303 = DIRECTION ( 'NONE',  ( 1.000000000000000000, 0.000000000000000000, -0.000000000000000000 ) ) ;
#304 = FACE_OUTER_BOUND ( 'NONE', #87, .T. ) ;
#305 = CARTESIAN_POINT ( 'NONE',  ( 0.000000000000000000, 0.000000000000000000, 7.000000000000000000 ) ) ;
#306 = AXIS2_PLACEMENT_3D ( 'NONE', #254, #298, #257 ) ;
#307 = EDGE_CURVE ( 'NONE', #10, #201, #139, .T. ) ;
ENDSEC;
END-ISO-10303-21;
