ISO-10303-21;
HEADER;
FILE_DESCRIPTION (( 'STEP AP203' ),
    '1' );
FILE_NAME ('0046.STEP',
    '2022-06-28T13:45:42',
    ( '' ),
    ( '' ),
    'SwSTEP 2.0',
    'SolidWorks 2019',
    '' );
FILE_SCHEMA (( 'CONFIG_CONTROL_DESIGN' ));
ENDSEC;

DATA;
#1 = VERTEX_POINT ( 'NONE', #159 ) ;
#2 = PERSON_AND_ORGANIZATION ( #126, #244 ) ;
#3 = TOROIDAL_SURFACE ( 'NONE', #85, 5.200000000000001066, 0.2000000000000000111 ) ;
#4 = ORIENTED_EDGE ( 'NONE', *, *, #66, .T. ) ;
#5 = PERSON_AND_ORGANIZATION ( #126, #244 ) ;
#6 = DIRECTION ( 'NONE',  ( 0.000000000000000000, 0.000000000000000000, 1.000000000000000000 ) ) ;
#7 = EDGE_CURVE ( 'NONE', #1, #121, #194, .T. ) ;
#8 = ORIENTED_EDGE ( 'NONE', *, *, #211, .T. ) ;
#9 = ADVANCED_FACE ( 'NONE', ( #138 ), #157, .F. ) ;
#10 = VECTOR ( 'NONE', #258, 1000.000000000000000 ) ;
#11 = VERTEX_POINT ( 'NONE', #72 ) ;
#12 = APPROVAL_PERSON_ORGANIZATION ( #37, #98, #133 ) ;
#13 = EDGE_LOOP ( 'NONE', ( #108, #290, #134, #65 ) ) ;
#14 = CARTESIAN_POINT ( 'NONE',  ( 0.000000000000000000, 0.000000000000000000, 588.0000000000000000 ) ) ;
#15 = CYLINDRICAL_SURFACE ( 'NONE', #105, 8.000000000000000000 ) ;
#16 = CLOSED_SHELL ( 'NONE', ( #9, #149, #49, #162, #129, #91, #68, #254, #36 ) ) ;
#17 = CC_DESIGN_APPROVAL ( #38, ( #70 ) ) ;
#18 = FACE_OUTER_BOUND ( 'NONE', #33, .T. ) ;
#19 = CARTESIAN_POINT ( 'NONE',  ( 0.000000000000000000, 0.000000000000000000, 5.000000000000000000 ) ) ;
#20 = CC_DESIGN_DATE_AND_TIME_ASSIGNMENT ( #107, #260, ( #70 ) ) ;
#21 = LINE ( 'NONE', #210, #250 ) ;
#22 = CC_DESIGN_APPROVAL ( #75, ( #52 ) ) ;
#23 = DIRECTION ( 'NONE',  ( -0.000000000000000000, -0.000000000000000000, -1.000000000000000000 ) ) ;
#24 = CARTESIAN_POINT ( 'NONE',  ( 0.000000000000000000, 0.000000000000000000, 588.0000000000000000 ) ) ;
#25 = PRODUCT_DEFINITION ( 'NEZNÁMÝ', '', #52, #76 ) ;
#26 = CARTESIAN_POINT ( 'NONE',  ( -8.000000000000000000, 0.000000000000000000, 5.000000000000000000 ) ) ;
#27 = AXIS2_PLACEMENT_3D ( 'NONE', #74, #117, #248 ) ;
#28 = APPROVAL_PERSON_ORGANIZATION ( #238, #38, #212 ) ;
#29 = FACE_OUTER_BOUND ( 'NONE', #284, .T. ) ;
#30 = EDGE_CURVE ( 'NONE', #285, #135, #146, .T. ) ;
#31 = DATE_AND_TIME ( #171, #41 ) ;
#32 = MANIFOLD_SOLID_BREP ( 'Zaoblit1', #16 ) ;
#33 = EDGE_LOOP ( 'NONE', ( #172, #161, #203, #118 ) ) ;
#34 = PERSON_AND_ORGANIZATION_ROLE ( 'creator' ) ;
#35 = ORIENTED_EDGE ( 'NONE', *, *, #57, .F. ) ;
#36 = ADVANCED_FACE ( 'NONE', ( #44 ), #3, .F. ) ;
#37 = PERSON_AND_ORGANIZATION ( #126, #244 ) ;
#38 = APPROVAL ( #130, 'NEURÈENÝ' ) ;
#39 = ORIENTED_EDGE ( 'NONE', *, *, #282, .F. ) ;
#40 = ORIENTED_EDGE ( 'NONE', *, *, #73, .F. ) ;
#41 = LOCAL_TIME ( 15, 45, 42.00000000000000000, #78 ) ;
#42 = DIRECTION ( 'NONE',  ( 0.000000000000000000, 0.000000000000000000, 1.000000000000000000 ) ) ;
#43 = CARTESIAN_POINT ( 'NONE',  ( 0.000000000000000000, 0.000000000000000000, 0.000000000000000000 ) ) ;
#44 = FACE_OUTER_BOUND ( 'NONE', #246, .T. ) ;
#45 = CC_DESIGN_APPROVAL ( #98, ( #25 ) ) ;
#46 = UNCERTAINTY_MEASURE_WITH_UNIT (LENGTH_MEASURE( 1.000000000000000082E-05 ), #209, 'distance_accuracy_value', 'NONE');
#47 = CARTESIAN_POINT ( 'NONE',  ( 0.000000000000000000, 0.000000000000000000, 5.000000000000000000 ) ) ;
#49 = ADVANCED_FACE ( 'NONE', ( #18 ), #15, .T. ) ;
#48 = EDGE_CURVE ( 'NONE', #135, #285, #179, .T. ) ;
#50 = DIRECTION ( 'NONE',  ( -0.000000000000000000, -0.000000000000000000, -1.000000000000000000 ) ) ;
#51 = CARTESIAN_POINT ( 'NONE',  ( 0.000000000000000000, 0.000000000000000000, 5.000000000000000000 ) ) ;
#52 = PRODUCT_DEFINITION_FORMATION_WITH_SPECIFIED_SOURCE ( 'LIBOVOLNÝ', '', #202, .NOT_KNOWN. ) ;
#53 = CALENDAR_DATE ( 2022, 28, 6 ) ;
#54 = PRODUCT_RELATED_PRODUCT_CATEGORY ( 'detail', '', ( #202 ) ) ;
#55 = CARTESIAN_POINT ( 'NONE',  ( 0.000000000000000000, 0.000000000000000000, 5.000000000000000000 ) ) ;
#56 = FACE_OUTER_BOUND ( 'NONE', #240, .T. ) ;
#57 = EDGE_CURVE ( 'NONE', #116, #199, #296, .T. ) ;
#58 = DIRECTION ( 'NONE',  ( -0.000000000000000000, -0.000000000000000000, -1.000000000000000000 ) ) ;
#59 = APPROVAL_STATUS ( 'not_yet_approved' ) ;
#60 = MECHANICAL_CONTEXT ( 'NONE', #144, 'mechanical' ) ;
#61 = VERTEX_POINT ( 'NONE', #294 ) ;
#62 = CARTESIAN_POINT ( 'NONE',  ( 0.000000000000000000, 0.000000000000000000, 0.000000000000000000 ) ) ;
#63 = CIRCLE ( 'NONE', #27, 5.000000000000000888 ) ;
#64 = EDGE_CURVE ( 'NONE', #121, #1, #192, .T. ) ;
#65 = ORIENTED_EDGE ( 'NONE', *, *, #211, .F. ) ;
#66 = EDGE_CURVE ( 'NONE', #61, #11, #63, .T. ) ;
#67 = CARTESIAN_POINT ( 'NONE',  ( 0.000000000000000000, 0.000000000000000000, 5.000000000000000000 ) ) ;
#68 = ADVANCED_FACE ( 'NONE', ( #164 ), #95, .T. ) ;
#69 = CARTESIAN_POINT ( 'NONE',  ( 5.200000000000001066, 0.000000000000000000, 5.199999999999982414 ) ) ;
#70 = SECURITY_CLASSIFICATION ( '', '', #197 ) ;
#71 = DIRECTION ( 'NONE',  ( 0.000000000000000000, 0.000000000000000000, 1.000000000000000000 ) ) ;
#72 = CARTESIAN_POINT ( 'NONE',  ( -5.000000000000000888, 0.000000000000000000, 588.0000000000000000 ) ) ;
#73 = EDGE_CURVE ( 'NONE', #285, #177, #291, .T. ) ;
#74 = CARTESIAN_POINT ( 'NONE',  ( 0.000000000000000000, 0.000000000000000000, 588.0000000000000000 ) ) ;
#75 = APPROVAL ( #59, 'NEURÈENÝ' ) ;
#76 = DESIGN_CONTEXT ( 'detailed design', #186, 'design' ) ;
#77 = CARTESIAN_POINT ( 'NONE',  ( 8.000000000000000000, 9.797174393178825657E-16, 5.000000000000000000 ) ) ;
#78 = COORDINATED_UNIVERSAL_TIME_OFFSET ( 1, 0, .AHEAD. ) ;
#79 = CARTESIAN_POINT ( 'NONE',  ( 0.000000000000000000, 0.000000000000000000, 588.0000000000000000 ) ) ;
#80 = AXIS2_PLACEMENT_3D ( 'NONE', #24, #148, #124 ) ;
#81 = APPROVAL_DATE_TIME ( #31, #38 ) ;
#82 = FACE_OUTER_BOUND ( 'NONE', #270, .T. ) ;
#83 = DIRECTION ( 'NONE',  ( 0.000000000000000000, 0.000000000000000000, 1.000000000000000000 ) ) ;
#84 = ORIENTED_EDGE ( 'NONE', *, *, #292, .F. ) ;
#85 = AXIS2_PLACEMENT_3D ( 'NONE', #184, #181, #160 ) ;
#86 = APPROVAL_PERSON_ORGANIZATION ( #5, #75, #93 ) ;
#87 = DATE_AND_TIME ( #89, #204 ) ;
#88 = ORIENTED_EDGE ( 'NONE', *, *, #99, .T. ) ;
#89 = CALENDAR_DATE ( 2022, 28, 6 ) ;
#90 = ORIENTED_EDGE ( 'NONE', *, *, #73, .T. ) ;
#91 = ADVANCED_FACE ( 'NONE', ( #273 ), #252, .F. ) ;
#92 = APPLICATION_PROTOCOL_DEFINITION ( 'international standard', 'config_control_design', 1994, #144 ) ;
#93 = APPROVAL_ROLE ( '' ) ;
#94 = CARTESIAN_POINT ( 'NONE',  ( 0.000000000000000000, 0.000000000000000000, 5.199999999999982414 ) ) ;
#95 = CYLINDRICAL_SURFACE ( 'NONE', #305, 5.000000000000000888 ) ;
#96 = DIRECTION ( 'NONE',  ( 0.000000000000000000, 0.000000000000000000, -1.000000000000000000 ) ) ;
#97 = CARTESIAN_POINT ( 'NONE',  ( 0.000000000000000000, 0.000000000000000000, 0.000000000000000000 ) ) ;
#99 = EDGE_CURVE ( 'NONE', #198, #177, #289, .T. ) ;
#98 = APPROVAL ( #241, 'NEURÈENÝ' ) ;
#100 = DIRECTION ( 'NONE',  ( 1.000000000000000000, 0.000000000000000000, 0.000000000000000000 ) ) ;
#101 = DIRECTION ( 'NONE',  ( -0.000000000000000000, -0.000000000000000000, -1.000000000000000000 ) ) ;
#102 = CARTESIAN_POINT ( 'NONE',  ( 8.000000000000000000, 9.797174393178825657E-16, 5.000000000000000000 ) ) ;
#103 = CARTESIAN_POINT ( 'NONE',  ( 5.000000000000000888, 6.123233995736767268E-16, 5.199999999999982414 ) ) ;
#104 = FACE_OUTER_BOUND ( 'NONE', #13, .T. ) ;
#105 = AXIS2_PLACEMENT_3D ( 'NONE', #67, #206, #156 ) ;
#106 = CARTESIAN_POINT ( 'NONE',  ( 0.000000000000000000, 0.000000000000000000, 0.000000000000000000 ) ) ;
#107 = DATE_AND_TIME ( #53, #120 ) ;
#108 = ORIENTED_EDGE ( 'NONE', *, *, #66, .F. ) ;
#109 = PERSON_AND_ORGANIZATION_ROLE ( 'creator' ) ;
#110 = ORIENTED_EDGE ( 'NONE', *, *, #48, .F. ) ;
#111 = APPROVAL_DATE_TIME ( #215, #75 ) ;
#112 = EDGE_LOOP ( 'NONE', ( #275, #88 ) ) ;
#113 = COORDINATED_UNIVERSAL_TIME_OFFSET ( 1, 0, .AHEAD. ) ;
#114 = ORIENTED_EDGE ( 'NONE', *, *, #64, .T. ) ;
#115 = AXIS2_PLACEMENT_3D ( 'NONE', #79, #58, #125 ) ;
#116 = VERTEX_POINT ( 'NONE', #232 ) ;
#117 = DIRECTION ( 'NONE',  ( 0.000000000000000000, 0.000000000000000000, 1.000000000000000000 ) ) ;
#118 = ORIENTED_EDGE ( 'NONE', *, *, #267, .F. ) ;
#119 = DIRECTION ( 'NONE',  ( 0.000000000000000000, 0.000000000000000000, 1.000000000000000000 ) ) ;
#120 = LOCAL_TIME ( 15, 45, 42.00000000000000000, #286 ) ;
#121 = VERTEX_POINT ( 'NONE', #102 ) ;
#122 = DIRECTION ( 'NONE',  ( 0.000000000000000000, 0.000000000000000000, 1.000000000000000000 ) ) ;
#123 = AXIS2_PLACEMENT_3D ( 'NONE', #106, #83, #229 ) ;
#124 = DIRECTION ( 'NONE',  ( 1.000000000000000000, 0.000000000000000000, -0.000000000000000000 ) ) ;
#125 = DIRECTION ( 'NONE',  ( -1.000000000000000000, 0.000000000000000000, 0.000000000000000000 ) ) ;
#126 = PERSON ( 'NEURÈENÝ', 'NEURÈENÝ', 'NEURÈENÝ', ('NEURÈENÝ'), ('NEURÈENÝ'), ('NEURÈENÝ') ) ;
#127 = DIRECTION ( 'NONE',  ( -0.000000000000000000, -0.000000000000000000, -1.000000000000000000 ) ) ;
#128 = AXIS2_PLACEMENT_3D ( 'NONE', #97, #201, #100 ) ;
#129 = ADVANCED_FACE ( 'NONE', ( #299, #82 ), #150, .T. ) ;
#130 = APPROVAL_STATUS ( 'not_yet_approved' ) ;
#131 = ORIENTED_EDGE ( 'NONE', *, *, #222, .F. ) ;
#132 = AXIS2_PLACEMENT_3D ( 'NONE', #94, #71, #139 ) ;
#133 = APPROVAL_ROLE ( '' ) ;
#134 = ORIENTED_EDGE ( 'NONE', *, *, #30, .T. ) ;
#135 = VERTEX_POINT ( 'NONE', #233 ) ;
#136 = CC_DESIGN_PERSON_AND_ORGANIZATION_ASSIGNMENT ( #2, #109, ( #52 ) ) ;
#137 = AXIS2_PLACEMENT_3D ( 'NONE', #142, #122, #297 ) ;
#138 = FACE_OUTER_BOUND ( 'NONE', #223, .T. ) ;
#139 = DIRECTION ( 'NONE',  ( 1.000000000000000000, 0.000000000000000000, 0.000000000000000000 ) ) ;
#140 = ORIENTED_EDGE ( 'NONE', *, *, #259, .T. ) ;
#141 = AXIS2_PLACEMENT_3D ( 'NONE', #51, #280, #303 ) ;
#142 = CARTESIAN_POINT ( 'NONE',  ( 0.000000000000000000, 0.000000000000000000, 5.199999999999982414 ) ) ;
#143 = ORIENTED_EDGE ( 'NONE', *, *, #253, .F. ) ;
#144 = APPLICATION_CONTEXT ( 'configuration controlled 3d designs of mechanical parts and assemblies' ) ;
#145 = DIRECTION ( 'NONE',  ( 1.000000000000000000, 0.000000000000000000, -0.000000000000000000 ) ) ;
#146 = CIRCLE ( 'NONE', #132, 5.000000000000000888 ) ;
#147 = DIRECTION ( 'NONE',  ( 0.000000000000000000, 0.000000000000000000, 1.000000000000000000 ) ) ;
#148 = DIRECTION ( 'NONE',  ( 0.000000000000000000, 0.000000000000000000, 1.000000000000000000 ) ) ;
#149 = ADVANCED_FACE ( 'NONE', ( #104 ), #193, .T. ) ;
#150 = PLANE ( 'NONE',  #163 ) ;
#151 = CALENDAR_DATE ( 2022, 28, 6 ) ;
#152 = ORIENTED_EDGE ( 'NONE', *, *, #7, .F. ) ;
#153 = LOCAL_TIME ( 15, 45, 42.00000000000000000, #196 ) ;
#154 = APPROVAL_DATE_TIME ( #87, #98 ) ;
#155 = EDGE_LOOP ( 'NONE', ( #131, #35 ) ) ;
#156 = DIRECTION ( 'NONE',  ( -1.000000000000000000, 0.000000000000000000, 0.000000000000000000 ) ) ;
#157 = TOROIDAL_SURFACE ( 'NONE', #262, 5.200000000000001066, 0.2000000000000000111 ) ;
#158 = LOCAL_TIME ( 15, 45, 42.00000000000000000, #113 ) ;
#159 = CARTESIAN_POINT ( 'NONE',  ( -8.000000000000000000, 0.000000000000000000, 5.000000000000000000 ) ) ;
#160 = DIRECTION ( 'NONE',  ( 1.000000000000000000, 0.000000000000000000, 0.000000000000000000 ) ) ;
#161 = ORIENTED_EDGE ( 'NONE', *, *, #292, .T. ) ;
#162 = ADVANCED_FACE ( 'NONE', ( #29 ), #306, .T. ) ;
#163 = AXIS2_PLACEMENT_3D ( 'NONE', #55, #147, #257 ) ;
#164 = FACE_OUTER_BOUND ( 'NONE', #205, .T. ) ;
#165 = CC_DESIGN_SECURITY_CLASSIFICATION ( #70, ( #52 ) ) ;
#166 = CARTESIAN_POINT ( 'NONE',  ( -5.200000000000001066, 6.368163355566237368E-16, 4.999999999999991118 ) ) ;
#167 = CARTESIAN_POINT ( 'NONE',  ( -5.200000000000001066, 6.368163355566237368E-16, 5.199999999999982414 ) ) ;
#168 = AXIS2_PLACEMENT_3D ( 'NONE', #47, #42, #187 ) ;
#169 = CARTESIAN_POINT ( 'NONE',  ( -5.000000000000000888, 0.000000000000000000, 588.0000000000000000 ) ) ;
#170 = DIRECTION ( 'NONE',  ( 1.000000000000000000, 0.000000000000000000, 0.000000000000000000 ) ) ;
#171 = CALENDAR_DATE ( 2022, 28, 6 ) ;
#172 = ORIENTED_EDGE ( 'NONE', *, *, #64, .F. ) ;
#173 = AXIS2_PLACEMENT_3D ( 'NONE', #43, #119, #145 ) ;
#174 = CIRCLE ( 'NONE', #277, 5.000000000000000888 ) ;
#175 = CALENDAR_DATE ( 2022, 28, 6 ) ;
#176 = PERSON_AND_ORGANIZATION ( #126, #244 ) ;
#177 = VERTEX_POINT ( 'NONE', #281 ) ;
#178 = PERSON_AND_ORGANIZATION_ROLE ( 'design_supplier' ) ;
#179 = CIRCLE ( 'NONE', #137, 5.000000000000000888 ) ;
#180 = CC_DESIGN_PERSON_AND_ORGANIZATION_ASSIGNMENT ( #247, #34, ( #25 ) ) ;
#181 = DIRECTION ( 'NONE',  ( 0.000000000000000000, 0.000000000000000000, 1.000000000000000000 ) ) ;
#182 = PRODUCT_DEFINITION_SHAPE ( 'NONE', 'NONE',  #25 ) ;
#183 = DIRECTION ( 'NONE',  ( -0.000000000000000000, -0.000000000000000000, -1.000000000000000000 ) ) ;
#184 = CARTESIAN_POINT ( 'NONE',  ( 0.000000000000000000, 0.000000000000000000, 5.199999999999982414 ) ) ;
#185 = ORIENTED_EDGE ( 'NONE', *, *, #189, .F. ) ;
#186 = APPLICATION_CONTEXT ( 'configuration controlled 3d designs of mechanical parts and assemblies' ) ;
#187 = DIRECTION ( 'NONE',  ( 1.000000000000000000, 0.000000000000000000, 0.000000000000000000 ) ) ;
#188 = CARTESIAN_POINT ( 'NONE',  ( 0.000000000000000000, 0.000000000000000000, 5.000000000000000000 ) ) ;
#189 = EDGE_CURVE ( 'NONE', #177, #198, #235, .T. ) ;
#190 = DIRECTION ( 'NONE',  ( 0.000000000000000000, 0.000000000000000000, 1.000000000000000000 ) ) ;
#191 = CARTESIAN_POINT ( 'NONE',  ( 0.000000000000000000, 0.000000000000000000, 5.000000000000000000 ) ) ;
#192 = CIRCLE ( 'NONE', #168, 8.000000000000000000 ) ;
#193 = CYLINDRICAL_SURFACE ( 'NONE', #115, 5.000000000000000888 ) ;
#194 = CIRCLE ( 'NONE', #243, 8.000000000000000000 ) ;
#195 =( GEOMETRIC_REPRESENTATION_CONTEXT ( 3 ) GLOBAL_UNCERTAINTY_ASSIGNED_CONTEXT ( ( #46 ) ) GLOBAL_UNIT_ASSIGNED_CONTEXT ( ( #209, #256, #271 ) ) REPRESENTATION_CONTEXT ( 'NONE', 'WORKASPACE' ) );
#196 = COORDINATED_UNIVERSAL_TIME_OFFSET ( 1, 0, .AHEAD. ) ;
#197 = SECURITY_CLASSIFICATION_LEVEL ( 'unclassified' ) ;
#198 = VERTEX_POINT ( 'NONE', #166 ) ;
#199 = VERTEX_POINT ( 'NONE', #214 ) ;
#200 = ORIENTED_EDGE ( 'NONE', *, *, #267, .T. ) ;
#201 = DIRECTION ( 'NONE',  ( 0.000000000000000000, 0.000000000000000000, 1.000000000000000000 ) ) ;
#202 = PRODUCT ( '0046', '0046', '', ( #60 ) ) ;
#203 = ORIENTED_EDGE ( 'NONE', *, *, #57, .T. ) ;
#204 = LOCAL_TIME ( 15, 45, 42.00000000000000000, #239 ) ;
#205 = EDGE_LOOP ( 'NONE', ( #39, #221, #8, #216 ) ) ;
#206 = DIRECTION ( 'NONE',  ( -0.000000000000000000, -0.000000000000000000, -1.000000000000000000 ) ) ;
#207 = DIRECTION ( 'NONE',  ( -1.000000000000000000, 0.000000000000000000, 0.000000000000000000 ) ) ;
#208 = AXIS2_PLACEMENT_3D ( 'NONE', #191, #23, #213 ) ;
#209 =( LENGTH_UNIT ( ) NAMED_UNIT ( * ) SI_UNIT ( .MILLI., .METRE. ) );
#210 = CARTESIAN_POINT ( 'NONE',  ( 5.000000000000000888, 6.123233995736767268E-16, 588.0000000000000000 ) ) ;
#211 = EDGE_CURVE ( 'NONE', #11, #135, #255, .T. ) ;
#212 = APPROVAL_ROLE ( '' ) ;
#213 = DIRECTION ( 'NONE',  ( 1.000000000000000000, 0.000000000000000000, 0.000000000000000000 ) ) ;
#214 = CARTESIAN_POINT ( 'NONE',  ( -8.000000000000000000, 0.000000000000000000, 0.000000000000000000 ) ) ;
#215 = DATE_AND_TIME ( #151, #158 ) ;
#216 = ORIENTED_EDGE ( 'NONE', *, *, #48, .T. ) ;
#217 = DATE_TIME_ROLE ( 'creation_date' ) ;
#218 = CC_DESIGN_DATE_AND_TIME_ASSIGNMENT ( #288, #217, ( #25 ) ) ;
#219 = APPLICATION_PROTOCOL_DEFINITION ( 'international standard', 'config_control_design', 1994, #186 ) ;
#220 = DIRECTION ( 'NONE',  ( 1.000000000000000000, 0.000000000000000000, 0.000000000000000000 ) ) ;
#221 = ORIENTED_EDGE ( 'NONE', *, *, #259, .F. ) ;
#222 = EDGE_CURVE ( 'NONE', #199, #116, #249, .T. ) ;
#223 = EDGE_LOOP ( 'NONE', ( #110, #269, #185, #40 ) ) ;
#224 = DIRECTION ( 'NONE',  ( 1.000000000000000000, 0.000000000000000000, 0.000000000000000000 ) ) ;
#225 = DIRECTION ( 'NONE',  ( 0.000000000000000000, 0.000000000000000000, 1.000000000000000000 ) ) ;
#226 = AXIS2_PLACEMENT_3D ( 'NONE', #62, #6, #220 ) ;
#227 = ORIENTED_EDGE ( 'NONE', *, *, #222, .T. ) ;
#228 = ORIENTED_EDGE ( 'NONE', *, *, #7, .T. ) ;
#229 = DIRECTION ( 'NONE',  ( 1.000000000000000000, 0.000000000000000000, 0.000000000000000000 ) ) ;
#230 = VECTOR ( 'NONE', #127, 1000.000000000000000 ) ;
#231 = CC_DESIGN_PERSON_AND_ORGANIZATION_ASSIGNMENT ( #176, #178, ( #52 ) ) ;
#232 = CARTESIAN_POINT ( 'NONE',  ( 8.000000000000000000, 9.797174393178825657E-16, 0.000000000000000000 ) ) ;
#233 = CARTESIAN_POINT ( 'NONE',  ( -5.000000000000000888, 0.000000000000000000, 5.199999999999982414 ) ) ;
#234 = CARTESIAN_POINT ( 'NONE',  ( 0.000000000000000000, 0.000000000000000000, 588.0000000000000000 ) ) ;
#235 = CIRCLE ( 'NONE', #208, 5.200000000000001066 ) ;
#236 = LINE ( 'NONE', #26, #230 ) ;
#237 = AXIS2_PLACEMENT_3D ( 'NONE', #167, #261, #301 ) ;
#238 = PERSON_AND_ORGANIZATION ( #126, #244 ) ;
#239 = COORDINATED_UNIVERSAL_TIME_OFFSET ( 1, 0, .AHEAD. ) ;
#240 = EDGE_LOOP ( 'NONE', ( #140, #4 ) ) ;
#241 = APPROVAL_STATUS ( 'not_yet_approved' ) ;
#242 = ADVANCED_BREP_SHAPE_REPRESENTATION ( '0046', ( #32, #226 ), #195 ) ;
#243 = AXIS2_PLACEMENT_3D ( 'NONE', #19, #225, #298 ) ;
#244 = ORGANIZATION ( 'NEURÈENÝ', 'NEURÈENÝ', '' ) ;
#245 = PERSON_AND_ORGANIZATION ( #126, #244 ) ;
#246 = EDGE_LOOP ( 'NONE', ( #143, #287, #90, #265 ) ) ;
#247 = PERSON_AND_ORGANIZATION ( #126, #244 ) ;
#248 = DIRECTION ( 'NONE',  ( 1.000000000000000000, 0.000000000000000000, 0.000000000000000000 ) ) ;
#249 = CIRCLE ( 'NONE', #123, 8.000000000000000000 ) ;
#250 = VECTOR ( 'NONE', #302, 1000.000000000000000 ) ;
#251 = CARTESIAN_POINT ( 'NONE',  ( 0.000000000000000000, 0.000000000000000000, 5.199999999999982414 ) ) ;
#252 = PLANE ( 'NONE',  #173 ) ;
#253 = EDGE_CURVE ( 'NONE', #135, #198, #283, .T. ) ;
#254 = ADVANCED_FACE ( 'NONE', ( #56 ), #279, .T. ) ;
#255 = LINE ( 'NONE', #169, #10 ) ;
#256 =( NAMED_UNIT ( * ) PLANE_ANGLE_UNIT ( ) SI_UNIT ( $, .RADIAN. ) );
#257 = DIRECTION ( 'NONE',  ( 1.000000000000000000, 0.000000000000000000, -0.000000000000000000 ) ) ;
#258 = DIRECTION ( 'NONE',  ( -0.000000000000000000, -0.000000000000000000, -1.000000000000000000 ) ) ;
#259 = EDGE_CURVE ( 'NONE', #11, #61, #174, .T. ) ;
#260 = DATE_TIME_ROLE ( 'classification_date' ) ;
#261 = DIRECTION ( 'NONE',  ( 1.224646799147353207E-16, 1.000000000000000000, -0.000000000000000000 ) ) ;
#262 = AXIS2_PLACEMENT_3D ( 'NONE', #251, #293, #224 ) ;
#263 = VECTOR ( 'NONE', #50, 1000.000000000000000 ) ;
#264 = PERSON_AND_ORGANIZATION_ROLE ( 'classification_officer' ) ;
#265 = ORIENTED_EDGE ( 'NONE', *, *, #99, .F. ) ;
#266 = PERSON_AND_ORGANIZATION ( #126, #244 ) ;
#267 = EDGE_CURVE ( 'NONE', #1, #199, #236, .T. ) ;
#268 = PERSON_AND_ORGANIZATION_ROLE ( 'design_owner' ) ;
#269 = ORIENTED_EDGE ( 'NONE', *, *, #253, .T. ) ;
#270 = EDGE_LOOP ( 'NONE', ( #228, #114 ) ) ;
#271 =( NAMED_UNIT ( * ) SI_UNIT ( $, .STERADIAN. ) SOLID_ANGLE_UNIT ( ) );
#272 = DIRECTION ( 'NONE',  ( -1.000000000000000000, 0.000000000000000000, 0.000000000000000000 ) ) ;
#273 = FACE_OUTER_BOUND ( 'NONE', #155, .T. ) ;
#274 = CC_DESIGN_PERSON_AND_ORGANIZATION_ASSIGNMENT ( #266, #264, ( #70 ) ) ;
#275 = ORIENTED_EDGE ( 'NONE', *, *, #189, .T. ) ;
#276 = AXIS2_PLACEMENT_3D ( 'NONE', #188, #101, #207 ) ;
#277 = AXIS2_PLACEMENT_3D ( 'NONE', #234, #190, #170 ) ;
#278 = LINE ( 'NONE', #77, #263 ) ;
#279 = PLANE ( 'NONE',  #80 ) ;
#280 = DIRECTION ( 'NONE',  ( -0.000000000000000000, -0.000000000000000000, -1.000000000000000000 ) ) ;
#281 = CARTESIAN_POINT ( 'NONE',  ( 5.200000000000001066, 0.000000000000000000, 4.999999999999991118 ) ) ;
#282 = EDGE_CURVE ( 'NONE', #61, #285, #21, .T. ) ;
#283 = CIRCLE ( 'NONE', #237, 0.1999999999999996503 ) ;
#284 = EDGE_LOOP ( 'NONE', ( #84, #152, #200, #227 ) ) ;
#285 = VERTEX_POINT ( 'NONE', #103 ) ;
#286 = COORDINATED_UNIVERSAL_TIME_OFFSET ( 1, 0, .AHEAD. ) ;
#287 = ORIENTED_EDGE ( 'NONE', *, *, #30, .F. ) ;
#288 = DATE_AND_TIME ( #175, #153 ) ;
#289 = CIRCLE ( 'NONE', #141, 5.200000000000001066 ) ;
#290 = ORIENTED_EDGE ( 'NONE', *, *, #282, .T. ) ;
#291 = CIRCLE ( 'NONE', #300, 0.1999999999999996503 ) ;
#292 = EDGE_CURVE ( 'NONE', #121, #116, #278, .T. ) ;
#293 = DIRECTION ( 'NONE',  ( 0.000000000000000000, 0.000000000000000000, 1.000000000000000000 ) ) ;
#294 = CARTESIAN_POINT ( 'NONE',  ( 5.000000000000000888, 6.123233995736767268E-16, 588.0000000000000000 ) ) ;
#295 = DIRECTION ( 'NONE',  ( 0.000000000000000000, -1.000000000000000000, 0.000000000000000000 ) ) ;
#296 = CIRCLE ( 'NONE', #128, 8.000000000000000000 ) ;
#297 = DIRECTION ( 'NONE',  ( 1.000000000000000000, 0.000000000000000000, 0.000000000000000000 ) ) ;
#298 = DIRECTION ( 'NONE',  ( 1.000000000000000000, 0.000000000000000000, 0.000000000000000000 ) ) ;
#299 = FACE_BOUND ( 'NONE', #112, .T. ) ;
#300 = AXIS2_PLACEMENT_3D ( 'NONE', #69, #295, #96 ) ;
#301 = DIRECTION ( 'NONE',  ( -1.000000000000000000, 1.224646799147353454E-16, 0.000000000000000000 ) ) ;
#302 = DIRECTION ( 'NONE',  ( -0.000000000000000000, -0.000000000000000000, -1.000000000000000000 ) ) ;
#303 = DIRECTION ( 'NONE',  ( 1.000000000000000000, 0.000000000000000000, 0.000000000000000000 ) ) ;
#304 = CC_DESIGN_PERSON_AND_ORGANIZATION_ASSIGNMENT ( #245, #268, ( #202 ) ) ;
#305 = AXIS2_PLACEMENT_3D ( 'NONE', #14, #183, #272 ) ;
#306 = CYLINDRICAL_SURFACE ( 'NONE', #276, 8.000000000000000000 ) ;
#307 = SHAPE_DEFINITION_REPRESENTATION ( #182, #242 ) ;
ENDSEC;
END-ISO-10303-21;
