ISO-10303-21;
HEADER;
FILE_DESCRIPTION (( 'STEP AP203' ),
    '1' );
FILE_NAME ('749b.STEP',
    '2022-06-20T10:18:09',
    ( '' ),
    ( '' ),
    'SwSTEP 2.0',
    'SolidWorks 2019',
    '' );
FILE_SCHEMA (( 'CONFIG_CONTROL_DESIGN' ));
ENDSEC;

DATA;
#1 = DIRECTION ( 'NONE',  ( -0.000000000000000000, -0.000000000000000000, -1.000000000000000000 ) ) ;
#2 = DIRECTION ( 'NONE',  ( 1.000000000000000000, 0.000000000000000000, 0.000000000000000000 ) ) ;
#3 = DIRECTION ( 'NONE',  ( 0.000000000000000000, 0.000000000000000000, 1.000000000000000000 ) ) ;
#4 = PERSON_AND_ORGANIZATION_ROLE ( 'design_owner' ) ;
#5 = CIRCLE ( 'NONE', #281, 2.500000000000000000 ) ;
#6 = CARTESIAN_POINT ( 'NONE',  ( 0.000000000000000000, 0.000000000000000000, 2.000000000000000000 ) ) ;
#7 = CIRCLE ( 'NONE', #237, 1.250000000000000000 ) ;
#8 = APPROVAL ( #220, 'NEURÈENÝ' ) ;
#9 = APPROVAL_STATUS ( 'not_yet_approved' ) ;
#10 = DIRECTION ( 'NONE',  ( 1.000000000000000000, 0.000000000000000000, 0.000000000000000000 ) ) ;
#11 = COORDINATED_UNIVERSAL_TIME_OFFSET ( 1, 0, .AHEAD. ) ;
#12 = FACE_OUTER_BOUND ( 'NONE', #123, .T. ) ;
#13 = DIRECTION ( 'NONE',  ( 0.000000000000000000, 0.000000000000000000, 1.000000000000000000 ) ) ;
#14 = EDGE_CURVE ( 'NONE', #82, #104, #78, .T. ) ;
#15 = DIRECTION ( 'NONE',  ( 1.000000000000000000, 0.000000000000000000, 0.000000000000000000 ) ) ;
#16 = ORIENTED_EDGE ( 'NONE', *, *, #202, .T. ) ;
#17 = ORIENTED_EDGE ( 'NONE', *, *, #201, .T. ) ;
#18 = CIRCLE ( 'NONE', #105, 0.2000000000000000944 ) ;
#19 = ORIENTED_EDGE ( 'NONE', *, *, #296, .T. ) ;
#20 = ORIENTED_EDGE ( 'NONE', *, *, #290, .F. ) ;
#21 = CALENDAR_DATE ( 2022, 20, 6 ) ;
#22 = FACE_OUTER_BOUND ( 'NONE', #150, .T. ) ;
#23 = APPLICATION_PROTOCOL_DEFINITION ( 'international standard', 'config_control_design', 1994, #209 ) ;
#24 = DIRECTION ( 'NONE',  ( -1.000000000000000000, 0.000000000000000000, 0.000000000000000000 ) ) ;
#25 = CALENDAR_DATE ( 2022, 20, 6 ) ;
#26 = COORDINATED_UNIVERSAL_TIME_OFFSET ( 1, 0, .AHEAD. ) ;
#27 = PRODUCT_RELATED_PRODUCT_CATEGORY ( 'detail', '', ( #182 ) ) ;
#28 = DIRECTION ( 'NONE',  ( -1.000000000000000000, 0.000000000000000000, 0.000000000000000000 ) ) ;
#29 = ORIENTED_EDGE ( 'NONE', *, *, #256, .T. ) ;
#30 = CYLINDRICAL_SURFACE ( 'NONE', #44, 2.500000000000000000 ) ;
#31 = PRODUCT_DEFINITION_FORMATION_WITH_SPECIFIED_SOURCE ( 'LIBOVOLNÝ', '', #182, .NOT_KNOWN. ) ;
#32 = DIRECTION ( 'NONE',  ( 1.000000000000000000, 0.000000000000000000, 0.000000000000000000 ) ) ;
#33 = PERSON_AND_ORGANIZATION ( #74, #283 ) ;
#34 = DIRECTION ( 'NONE',  ( 1.000000000000000000, 0.000000000000000000, 0.000000000000000000 ) ) ;
#35 = LOCAL_TIME ( 12, 18, 9.000000000000000000, #274 ) ;
#36 = ADVANCED_FACE ( 'NONE', ( #75 ), #203, .F. ) ;
#37 = EDGE_LOOP ( 'NONE', ( #264, #29, #304, #133 ) ) ;
#38 = CARTESIAN_POINT ( 'NONE',  ( 0.000000000000000000, 0.000000000000000000, 2.199999999999993516 ) ) ;
#39 = ORIENTED_EDGE ( 'NONE', *, *, #160, .T. ) ;
#40 = CARTESIAN_POINT ( 'NONE',  ( 0.000000000000000000, 0.000000000000000000, 2.000000000000000000 ) ) ;
#41 = ORIENTED_EDGE ( 'NONE', *, *, #122, .T. ) ;
#42 = CIRCLE ( 'NONE', #67, 1.250000000000000000 ) ;
#43 = CARTESIAN_POINT ( 'NONE',  ( 1.450000000000000178, 0.000000000000000000, 2.199999999999993516 ) ) ;
#44 = AXIS2_PLACEMENT_3D ( 'NONE', #252, #230, #28 ) ;
#45 = PRODUCT_DEFINITION ( 'NEZNÁMÝ', '', #31, #305 ) ;
#46 = FACE_OUTER_BOUND ( 'NONE', #139, .T. ) ;
#47 = ORIENTED_EDGE ( 'NONE', *, *, #273, .F. ) ;
#48 = VERTEX_POINT ( 'NONE', #77 ) ;
#49 = DIRECTION ( 'NONE',  ( 1.000000000000000000, 0.000000000000000000, -0.000000000000000000 ) ) ;
#50 = ORIENTED_EDGE ( 'NONE', *, *, #14, .F. ) ;
#51 = AXIS2_PLACEMENT_3D ( 'NONE', #269, #276, #145 ) ;
#52 = LOCAL_TIME ( 12, 18, 9.000000000000000000, #151 ) ;
#53 = CALENDAR_DATE ( 2022, 20, 6 ) ;
#54 = CARTESIAN_POINT ( 'NONE',  ( 1.250000000000000000, 1.530808498934191571E-16, 127.0000000000000000 ) ) ;
#55 = DIRECTION ( 'NONE',  ( -0.000000000000000000, -0.000000000000000000, -1.000000000000000000 ) ) ;
#56 = VERTEX_POINT ( 'NONE', #294 ) ;
#57 = AXIS2_PLACEMENT_3D ( 'NONE', #175, #95, #146 ) ;
#58 = DIRECTION ( 'NONE',  ( 1.000000000000000000, 0.000000000000000000, 0.000000000000000000 ) ) ;
#59 = EDGE_LOOP ( 'NONE', ( #65, #239, #136, #20 ) ) ;
#60 = FACE_OUTER_BOUND ( 'NONE', #227, .T. ) ;
#61 = EDGE_LOOP ( 'NONE', ( #165, #238, #19, #47 ) ) ;
#62 = CLOSED_SHELL ( 'NONE', ( #36, #114, #219, #112, #101, #121, #266, #177, #265 ) ) ;
#63 = PERSON_AND_ORGANIZATION ( #74, #283 ) ;
#64 = CIRCLE ( 'NONE', #229, 0.2000000000000000944 ) ;
#65 = ORIENTED_EDGE ( 'NONE', *, *, #231, .F. ) ;
#66 = DIRECTION ( 'NONE',  ( 1.000000000000000000, 0.000000000000000000, 0.000000000000000000 ) ) ;
#67 = AXIS2_PLACEMENT_3D ( 'NONE', #97, #130, #303 ) ;
#68 = ORIENTED_EDGE ( 'NONE', *, *, #202, .F. ) ;
#69 = APPROVAL_PERSON_ORGANIZATION ( #221, #8, #246 ) ;
#70 = PERSON_AND_ORGANIZATION ( #74, #283 ) ;
#71 = CARTESIAN_POINT ( 'NONE',  ( 0.000000000000000000, 0.000000000000000000, 127.0000000000000000 ) ) ;
#72 = VECTOR ( 'NONE', #118, 1000.000000000000000 ) ;
#73 = CC_DESIGN_APPROVAL ( #138, ( #163 ) ) ;
#74 = PERSON ( 'NEURÈENÝ', 'NEURÈENÝ', 'NEURÈENÝ', ('NEURÈENÝ'), ('NEURÈENÝ'), ('NEURÈENÝ') ) ;
#75 = FACE_OUTER_BOUND ( 'NONE', #37, .T. ) ;
#76 = CARTESIAN_POINT ( 'NONE',  ( -1.450000000000000178, 1.775737858763662163E-16, 2.199999999999993516 ) ) ;
#77 = CARTESIAN_POINT ( 'NONE',  ( -1.450000000000000178, 1.775737858763662409E-16, 1.999999999999996669 ) ) ;
#78 = CIRCLE ( 'NONE', #236, 2.500000000000000000 ) ;
#79 = AXIS2_PLACEMENT_3D ( 'NONE', #71, #307, #34 ) ;
#80 = APPLICATION_CONTEXT ( 'configuration controlled 3d designs of mechanical parts and assemblies' ) ;
#81 = EDGE_CURVE ( 'NONE', #268, #82, #275, .T. ) ;
#82 = VERTEX_POINT ( 'NONE', #243 ) ;
#83 = DIRECTION ( 'NONE',  ( 1.224646799147353207E-16, 1.000000000000000000, -0.000000000000000000 ) ) ;
#84 = VERTEX_POINT ( 'NONE', #217 ) ;
#85 = CARTESIAN_POINT ( 'NONE',  ( 2.500000000000000000, 3.061616997868383141E-16, 2.000000000000000000 ) ) ;
#86 = VECTOR ( 'NONE', #164, 1000.000000000000000 ) ;
#87 = DIRECTION ( 'NONE',  ( -0.000000000000000000, -0.000000000000000000, -1.000000000000000000 ) ) ;
#88 = MECHANICAL_CONTEXT ( 'NONE', #80, 'mechanical' ) ;
#89 = FACE_BOUND ( 'NONE', #287, .T. ) ;
#90 = COORDINATED_UNIVERSAL_TIME_OFFSET ( 1, 0, .AHEAD. ) ;
#91 = DATE_AND_TIME ( #25, #35 ) ;
#92 = CIRCLE ( 'NONE', #166, 2.500000000000000000 ) ;
#93 = CIRCLE ( 'NONE', #79, 1.250000000000000000 ) ;
#94 = PERSON_AND_ORGANIZATION ( #74, #283 ) ;
#95 = DIRECTION ( 'NONE',  ( -0.000000000000000000, -0.000000000000000000, -1.000000000000000000 ) ) ;
#96 = CIRCLE ( 'NONE', #250, 1.450000000000000178 ) ;
#97 = CARTESIAN_POINT ( 'NONE',  ( 0.000000000000000000, 0.000000000000000000, 127.0000000000000000 ) ) ;
#98 = EDGE_CURVE ( 'NONE', #104, #82, #5, .T. ) ;
#99 = ORIENTED_EDGE ( 'NONE', *, *, #231, .T. ) ;
#100 = SECURITY_CLASSIFICATION_LEVEL ( 'unclassified' ) ;
#101 = ADVANCED_FACE ( 'NONE', ( #89, #223 ), #194, .T. ) ;
#102 = LINE ( 'NONE', #125, #153 ) ;
#103 = CC_DESIGN_PERSON_AND_ORGANIZATION_ASSIGNMENT ( #117, #193, ( #45 ) ) ;
#104 = VERTEX_POINT ( 'NONE', #292 ) ;
#105 = AXIS2_PLACEMENT_3D ( 'NONE', #43, #216, #291 ) ;
#106 = ORIENTED_EDGE ( 'NONE', *, *, #122, .F. ) ;
#107 = DIRECTION ( 'NONE',  ( 1.000000000000000000, 0.000000000000000000, 0.000000000000000000 ) ) ;
#108 = ORIENTED_EDGE ( 'NONE', *, *, #81, .F. ) ;
#109 = APPROVAL_PERSON_ORGANIZATION ( #214, #286, #248 ) ;
#110 = DIRECTION ( 'NONE',  ( 0.000000000000000000, 0.000000000000000000, 1.000000000000000000 ) ) ;
#111 = DIRECTION ( 'NONE',  ( -0.000000000000000000, -0.000000000000000000, -1.000000000000000000 ) ) ;
#112 = ADVANCED_FACE ( 'NONE', ( #22 ), #113, .T. ) ;
#113 = CYLINDRICAL_SURFACE ( 'NONE', #249, 2.500000000000000000 ) ;
#114 = ADVANCED_FACE ( 'NONE', ( #46 ), #128, .T. ) ;
#115 = APPROVAL_DATE_TIME ( #140, #286 ) ;
#116 = LOCAL_TIME ( 12, 18, 9.000000000000000000, #11 ) ;
#117 = PERSON_AND_ORGANIZATION ( #74, #283 ) ;
#118 = DIRECTION ( 'NONE',  ( -0.000000000000000000, -0.000000000000000000, -1.000000000000000000 ) ) ;
#119 = CARTESIAN_POINT ( 'NONE',  ( -2.500000000000000000, 0.000000000000000000, 2.000000000000000000 ) ) ;
#120 = CALENDAR_DATE ( 2022, 20, 6 ) ;
#121 = ADVANCED_FACE ( 'NONE', ( #253 ), #176, .F. ) ;
#122 = EDGE_CURVE ( 'NONE', #84, #257, #226, .T. ) ;
#123 = EDGE_LOOP ( 'NONE', ( #278, #17 ) ) ;
#124 = PERSON_AND_ORGANIZATION_ROLE ( 'design_supplier' ) ;
#125 = CARTESIAN_POINT ( 'NONE',  ( 1.250000000000000000, 1.530808498934191571E-16, 127.0000000000000000 ) ) ;
#126 = CIRCLE ( 'NONE', #162, 1.250000000000000000 ) ;
#127 = APPROVAL_PERSON_ORGANIZATION ( #94, #138, #298 ) ;
#128 = CYLINDRICAL_SURFACE ( 'NONE', #57, 1.250000000000000000 ) ;
#129 = PERSON_AND_ORGANIZATION_ROLE ( 'classification_officer' ) ;
#130 = DIRECTION ( 'NONE',  ( 0.000000000000000000, 0.000000000000000000, 1.000000000000000000 ) ) ;
#131 =( GEOMETRIC_REPRESENTATION_CONTEXT ( 3 ) GLOBAL_UNCERTAINTY_ASSIGNED_CONTEXT ( ( #148 ) ) GLOBAL_UNIT_ASSIGNED_CONTEXT ( ( #289, #192, #142 ) ) REPRESENTATION_CONTEXT ( 'NONE', 'WORKASPACE' ) );
#132 = ORIENTED_EDGE ( 'NONE', *, *, #98, .T. ) ;
#133 = ORIENTED_EDGE ( 'NONE', *, *, #296, .F. ) ;
#134 = CC_DESIGN_APPROVAL ( #8, ( #45 ) ) ;
#135 = DIRECTION ( 'NONE',  ( -1.000000000000000000, 1.224646799147353207E-16, 0.000000000000000000 ) ) ;
#136 = ORIENTED_EDGE ( 'NONE', *, *, #14, .T. ) ;
#137 = APPLICATION_PROTOCOL_DEFINITION ( 'international standard', 'config_control_design', 1994, #80 ) ;
#138 = APPROVAL ( #155, 'NEURÈENÝ' ) ;
#139 = EDGE_LOOP ( 'NONE', ( #147, #16, #204, #106 ) ) ;
#140 = DATE_AND_TIME ( #120, #211 ) ;
#141 = CARTESIAN_POINT ( 'NONE',  ( 2.500000000000000000, 3.061616997868383141E-16, 2.000000000000000000 ) ) ;
#142 =( NAMED_UNIT ( * ) SI_UNIT ( $, .STERADIAN. ) SOLID_ANGLE_UNIT ( ) );
#143 = DIRECTION ( 'NONE',  ( 0.000000000000000000, 0.000000000000000000, 1.000000000000000000 ) ) ;
#144 = AXIS2_PLACEMENT_3D ( 'NONE', #235, #260, #186 ) ;
#145 = DIRECTION ( 'NONE',  ( 1.000000000000000000, 0.000000000000000000, -0.000000000000000000 ) ) ;
#146 = DIRECTION ( 'NONE',  ( -1.000000000000000000, 0.000000000000000000, 0.000000000000000000 ) ) ;
#147 = ORIENTED_EDGE ( 'NONE', *, *, #201, .F. ) ;
#148 = UNCERTAINTY_MEASURE_WITH_UNIT (LENGTH_MEASURE( 1.000000000000000082E-05 ), #289, 'distance_accuracy_value', 'NONE');
#149 = DIRECTION ( 'NONE',  ( 0.000000000000000000, 0.000000000000000000, 1.000000000000000000 ) ) ;
#150 = EDGE_LOOP ( 'NONE', ( #108, #254, #261, #132 ) ) ;
#151 = COORDINATED_UNIVERSAL_TIME_OFFSET ( 1, 0, .AHEAD. ) ;
#152 = FACE_OUTER_BOUND ( 'NONE', #59, .T. ) ;
#153 = VECTOR ( 'NONE', #55, 1000.000000000000000 ) ;
#154 = EDGE_LOOP ( 'NONE', ( #179, #99 ) ) ;
#155 = APPROVAL_STATUS ( 'not_yet_approved' ) ;
#156 = DIRECTION ( 'NONE',  ( 1.000000000000000000, 0.000000000000000000, -0.000000000000000000 ) ) ;
#157 = VERTEX_POINT ( 'NONE', #54 ) ;
#158 = CC_DESIGN_DATE_AND_TIME_ASSIGNMENT ( #300, #279, ( #163 ) ) ;
#159 = FACE_OUTER_BOUND ( 'NONE', #61, .T. ) ;
#160 = EDGE_CURVE ( 'NONE', #257, #280, #126, .T. ) ;
#161 = EDGE_CURVE ( 'NONE', #288, #268, #92, .T. ) ;
#162 = AXIS2_PLACEMENT_3D ( 'NONE', #180, #284, #32 ) ;
#163 = SECURITY_CLASSIFICATION ( '', '', #100 ) ;
#164 = DIRECTION ( 'NONE',  ( -0.000000000000000000, -0.000000000000000000, -1.000000000000000000 ) ) ;
#165 = ORIENTED_EDGE ( 'NONE', *, *, #256, .F. ) ;
#166 = AXIS2_PLACEMENT_3D ( 'NONE', #174, #149, #234 ) ;
#167 = AXIS2_PLACEMENT_3D ( 'NONE', #40, #111, #66 ) ;
#168 = CARTESIAN_POINT ( 'NONE',  ( -2.500000000000000000, 0.000000000000000000, 2.000000000000000000 ) ) ;
#169 = LINE ( 'NONE', #168, #86 ) ;
#170 = DIRECTION ( 'NONE',  ( 1.000000000000000000, 0.000000000000000000, 0.000000000000000000 ) ) ;
#171 = APPROVAL_DATE_TIME ( #251, #138 ) ;
#172 = AXIS2_PLACEMENT_3D ( 'NONE', #205, #1, #181 ) ;
#173 = EDGE_LOOP ( 'NONE', ( #187, #50 ) ) ;
#174 = CARTESIAN_POINT ( 'NONE',  ( 0.000000000000000000, 0.000000000000000000, 2.000000000000000000 ) ) ;
#175 = CARTESIAN_POINT ( 'NONE',  ( 0.000000000000000000, 0.000000000000000000, 127.0000000000000000 ) ) ;
#176 = PLANE ( 'NONE',  #197 ) ;
#177 = ADVANCED_FACE ( 'NONE', ( #12 ), #258, .T. ) ;
#178 = CIRCLE ( 'NONE', #144, 2.500000000000000000 ) ;
#179 = ORIENTED_EDGE ( 'NONE', *, *, #161, .T. ) ;
#180 = CARTESIAN_POINT ( 'NONE',  ( 0.000000000000000000, 0.000000000000000000, 2.199999999999993516 ) ) ;
#181 = DIRECTION ( 'NONE',  ( -1.000000000000000000, 0.000000000000000000, 0.000000000000000000 ) ) ;
#182 = PRODUCT ( '749b', '749b', '', ( #88 ) ) ;
#183 = CC_DESIGN_PERSON_AND_ORGANIZATION_ASSIGNMENT ( #33, #129, ( #163 ) ) ;
#184 = CARTESIAN_POINT ( 'NONE',  ( 0.000000000000000000, 0.000000000000000000, 2.199999999999993516 ) ) ;
#185 = CC_DESIGN_APPROVAL ( #286, ( #31 ) ) ;
#186 = DIRECTION ( 'NONE',  ( 1.000000000000000000, 0.000000000000000000, 0.000000000000000000 ) ) ;
#187 = ORIENTED_EDGE ( 'NONE', *, *, #98, .F. ) ;
#188 = CYLINDRICAL_SURFACE ( 'NONE', #172, 1.250000000000000000 ) ;
#189 = EDGE_CURVE ( 'NONE', #84, #157, #93, .T. ) ;
#190 = DIRECTION ( 'NONE',  ( 1.000000000000000000, 0.000000000000000000, 0.000000000000000000 ) ) ;
#191 = CC_DESIGN_SECURITY_CLASSIFICATION ( #163, ( #31 ) ) ;
#192 =( NAMED_UNIT ( * ) PLANE_ANGLE_UNIT ( ) SI_UNIT ( $, .RADIAN. ) );
#193 = PERSON_AND_ORGANIZATION_ROLE ( 'creator' ) ;
#194 = PLANE ( 'NONE',  #51 ) ;
#195 = CC_DESIGN_PERSON_AND_ORGANIZATION_ASSIGNMENT ( #282, #225, ( #31 ) ) ;
#196 = DIRECTION ( 'NONE',  ( -0.000000000000000000, -0.000000000000000000, -1.000000000000000000 ) ) ;
#197 = AXIS2_PLACEMENT_3D ( 'NONE', #255, #232, #49 ) ;
#198 = SHAPE_DEFINITION_REPRESENTATION ( #299, #213 ) ;
#199 = CARTESIAN_POINT ( 'NONE',  ( 0.000000000000000000, 0.000000000000000000, 127.0000000000000000 ) ) ;
#200 = CALENDAR_DATE ( 2022, 20, 6 ) ;
#201 = EDGE_CURVE ( 'NONE', #157, #84, #42, .T. ) ;
#202 = EDGE_CURVE ( 'NONE', #157, #280, #102, .T. ) ;
#203 = TOROIDAL_SURFACE ( 'NONE', #301, 1.450000000000000178, 0.2000000000000000111 ) ;
#204 = ORIENTED_EDGE ( 'NONE', *, *, #233, .T. ) ;
#205 = CARTESIAN_POINT ( 'NONE',  ( 0.000000000000000000, 0.000000000000000000, 127.0000000000000000 ) ) ;
#206 = DIRECTION ( 'NONE',  ( 0.000000000000000000, 0.000000000000000000, 1.000000000000000000 ) ) ;
#207 = DIRECTION ( 'NONE',  ( -0.000000000000000000, -0.000000000000000000, -1.000000000000000000 ) ) ;
#208 = ORIENTED_EDGE ( 'NONE', *, *, #189, .F. ) ;
#209 = APPLICATION_CONTEXT ( 'configuration controlled 3d designs of mechanical parts and assemblies' ) ;
#210 = AXIS2_PLACEMENT_3D ( 'NONE', #199, #13, #156 ) ;
#211 = LOCAL_TIME ( 12, 18, 9.000000000000000000, #26 ) ;
#212 = ORIENTED_EDGE ( 'NONE', *, *, #222, .T. ) ;
#213 = ADVANCED_BREP_SHAPE_REPRESENTATION ( '749b', ( #228, #245 ), #131 ) ;
#214 = PERSON_AND_ORGANIZATION ( #74, #283 ) ;
#215 = CIRCLE ( 'NONE', #167, 1.450000000000000178 ) ;
#216 = DIRECTION ( 'NONE',  ( 0.000000000000000000, -1.000000000000000000, 0.000000000000000000 ) ) ;
#217 = CARTESIAN_POINT ( 'NONE',  ( -1.250000000000000000, 0.000000000000000000, 127.0000000000000000 ) ) ;
#218 = CARTESIAN_POINT ( 'NONE',  ( 0.000000000000000000, 0.000000000000000000, 0.000000000000000000 ) ) ;
#219 = ADVANCED_FACE ( 'NONE', ( #152 ), #30, .T. ) ;
#220 = APPROVAL_STATUS ( 'not_yet_approved' ) ;
#221 = PERSON_AND_ORGANIZATION ( #74, #283 ) ;
#222 = EDGE_CURVE ( 'NONE', #56, #48, #96, .T. ) ;
#223 = FACE_OUTER_BOUND ( 'NONE', #154, .T. ) ;
#224 = CARTESIAN_POINT ( 'NONE',  ( -1.250000000000000000, 0.000000000000000000, 127.0000000000000000 ) ) ;
#225 = PERSON_AND_ORGANIZATION_ROLE ( 'creator' ) ;
#226 = LINE ( 'NONE', #224, #271 ) ;
#227 = EDGE_LOOP ( 'NONE', ( #68, #208, #41, #39 ) ) ;
#228 = MANIFOLD_SOLID_BREP ( 'Zaoblit1', #62 ) ;
#229 = AXIS2_PLACEMENT_3D ( 'NONE', #76, #83, #135 ) ;
#230 = DIRECTION ( 'NONE',  ( -0.000000000000000000, -0.000000000000000000, -1.000000000000000000 ) ) ;
#231 = EDGE_CURVE ( 'NONE', #268, #288, #178, .T. ) ;
#232 = DIRECTION ( 'NONE',  ( 0.000000000000000000, 0.000000000000000000, 1.000000000000000000 ) ) ;
#233 = EDGE_CURVE ( 'NONE', #280, #257, #7, .T. ) ;
#234 = DIRECTION ( 'NONE',  ( 1.000000000000000000, 0.000000000000000000, 0.000000000000000000 ) ) ;
#235 = CARTESIAN_POINT ( 'NONE',  ( 0.000000000000000000, 0.000000000000000000, 2.000000000000000000 ) ) ;
#236 = AXIS2_PLACEMENT_3D ( 'NONE', #242, #206, #2 ) ;
#237 = AXIS2_PLACEMENT_3D ( 'NONE', #38, #3, #15 ) ;
#238 = ORIENTED_EDGE ( 'NONE', *, *, #233, .F. ) ;
#239 = ORIENTED_EDGE ( 'NONE', *, *, #81, .T. ) ;
#240 = CARTESIAN_POINT ( 'NONE',  ( -1.250000000000000000, 0.000000000000000000, 2.199999999999993516 ) ) ;
#241 = DIRECTION ( 'NONE',  ( 0.000000000000000000, 0.000000000000000000, 1.000000000000000000 ) ) ;
#242 = CARTESIAN_POINT ( 'NONE',  ( 0.000000000000000000, 0.000000000000000000, 0.000000000000000000 ) ) ;
#243 = CARTESIAN_POINT ( 'NONE',  ( 2.500000000000000000, 3.061616997868383141E-16, 0.000000000000000000 ) ) ;
#244 = CC_DESIGN_PERSON_AND_ORGANIZATION_ASSIGNMENT ( #70, #124, ( #31 ) ) ;
#245 = AXIS2_PLACEMENT_3D ( 'NONE', #218, #241, #190 ) ;
#246 = APPROVAL_ROLE ( '' ) ;
#247 = CARTESIAN_POINT ( 'NONE',  ( 0.000000000000000000, 0.000000000000000000, 0.000000000000000000 ) ) ;
#248 = APPROVAL_ROLE ( '' ) ;
#249 = AXIS2_PLACEMENT_3D ( 'NONE', #6, #87, #24 ) ;
#250 = AXIS2_PLACEMENT_3D ( 'NONE', #306, #207, #107 ) ;
#251 = DATE_AND_TIME ( #200, #52 ) ;
#252 = CARTESIAN_POINT ( 'NONE',  ( 0.000000000000000000, 0.000000000000000000, 2.000000000000000000 ) ) ;
#253 = FACE_OUTER_BOUND ( 'NONE', #173, .T. ) ;
#254 = ORIENTED_EDGE ( 'NONE', *, *, #161, .F. ) ;
#255 = CARTESIAN_POINT ( 'NONE',  ( 0.000000000000000000, 0.000000000000000000, 0.000000000000000000 ) ) ;
#256 = EDGE_CURVE ( 'NONE', #257, #48, #64, .T. ) ;
#257 = VERTEX_POINT ( 'NONE', #240 ) ;
#258 = PLANE ( 'NONE',  #210 ) ;
#259 = CC_DESIGN_DATE_AND_TIME_ASSIGNMENT ( #295, #293, ( #45 ) ) ;
#260 = DIRECTION ( 'NONE',  ( 0.000000000000000000, 0.000000000000000000, 1.000000000000000000 ) ) ;
#261 = ORIENTED_EDGE ( 'NONE', *, *, #290, .T. ) ;
#262 = CARTESIAN_POINT ( 'NONE',  ( 0.000000000000000000, 0.000000000000000000, 2.199999999999993516 ) ) ;
#263 = LOCAL_TIME ( 12, 18, 9.000000000000000000, #90 ) ;
#264 = ORIENTED_EDGE ( 'NONE', *, *, #160, .F. ) ;
#265 = ADVANCED_FACE ( 'NONE', ( #159 ), #302, .F. ) ;
#266 = ADVANCED_FACE ( 'NONE', ( #60 ), #188, .T. ) ;
#267 = ORIENTED_EDGE ( 'NONE', *, *, #273, .T. ) ;
#268 = VERTEX_POINT ( 'NONE', #85 ) ;
#269 = CARTESIAN_POINT ( 'NONE',  ( 0.000000000000000000, 0.000000000000000000, 2.000000000000000000 ) ) ;
#270 = APPROVAL_DATE_TIME ( #91, #8 ) ;
#271 = VECTOR ( 'NONE', #196, 1000.000000000000000 ) ;
#272 = CARTESIAN_POINT ( 'NONE',  ( 1.250000000000000000, 1.530808498934191571E-16, 2.199999999999993516 ) ) ;
#273 = EDGE_CURVE ( 'NONE', #48, #56, #215, .T. ) ;
#274 = COORDINATED_UNIVERSAL_TIME_OFFSET ( 1, 0, .AHEAD. ) ;
#275 = LINE ( 'NONE', #141, #72 ) ;
#276 = DIRECTION ( 'NONE',  ( 0.000000000000000000, 0.000000000000000000, 1.000000000000000000 ) ) ;
#277 = AXIS2_PLACEMENT_3D ( 'NONE', #262, #110, #58 ) ;
#278 = ORIENTED_EDGE ( 'NONE', *, *, #189, .T. ) ;
#279 = DATE_TIME_ROLE ( 'classification_date' ) ;
#280 = VERTEX_POINT ( 'NONE', #272 ) ;
#281 = AXIS2_PLACEMENT_3D ( 'NONE', #247, #143, #10 ) ;
#282 = PERSON_AND_ORGANIZATION ( #74, #283 ) ;
#283 = ORGANIZATION ( 'NEURÈENÝ', 'NEURÈENÝ', '' ) ;
#284 = DIRECTION ( 'NONE',  ( 0.000000000000000000, 0.000000000000000000, 1.000000000000000000 ) ) ;
#285 = CC_DESIGN_PERSON_AND_ORGANIZATION_ASSIGNMENT ( #63, #4, ( #182 ) ) ;
#286 = APPROVAL ( #9, 'NEURÈENÝ' ) ;
#287 = EDGE_LOOP ( 'NONE', ( #212, #267 ) ) ;
#288 = VERTEX_POINT ( 'NONE', #119 ) ;
#289 =( LENGTH_UNIT ( ) NAMED_UNIT ( * ) SI_UNIT ( .MILLI., .METRE. ) );
#290 = EDGE_CURVE ( 'NONE', #288, #104, #169, .T. ) ;
#291 = DIRECTION ( 'NONE',  ( 0.000000000000000000, 0.000000000000000000, -1.000000000000000000 ) ) ;
#292 = CARTESIAN_POINT ( 'NONE',  ( -2.500000000000000000, 0.000000000000000000, 0.000000000000000000 ) ) ;
#293 = DATE_TIME_ROLE ( 'creation_date' ) ;
#294 = CARTESIAN_POINT ( 'NONE',  ( 1.450000000000000178, 0.000000000000000000, 1.999999999999996669 ) ) ;
#295 = DATE_AND_TIME ( #21, #263 ) ;
#296 = EDGE_CURVE ( 'NONE', #280, #56, #18, .T. ) ;
#297 = DIRECTION ( 'NONE',  ( 0.000000000000000000, 0.000000000000000000, 1.000000000000000000 ) ) ;
#298 = APPROVAL_ROLE ( '' ) ;
#299 = PRODUCT_DEFINITION_SHAPE ( 'NONE', 'NONE',  #45 ) ;
#300 = DATE_AND_TIME ( #53, #116 ) ;
#301 = AXIS2_PLACEMENT_3D ( 'NONE', #184, #297, #170 ) ;
#302 = TOROIDAL_SURFACE ( 'NONE', #277, 1.450000000000000178, 0.2000000000000000111 ) ;
#303 = DIRECTION ( 'NONE',  ( 1.000000000000000000, 0.000000000000000000, 0.000000000000000000 ) ) ;
#304 = ORIENTED_EDGE ( 'NONE', *, *, #222, .F. ) ;
#305 = DESIGN_CONTEXT ( 'detailed design', #209, 'design' ) ;
#306 = CARTESIAN_POINT ( 'NONE',  ( 0.000000000000000000, 0.000000000000000000, 2.000000000000000000 ) ) ;
#307 = DIRECTION ( 'NONE',  ( 0.000000000000000000, 0.000000000000000000, 1.000000000000000000 ) ) ;
ENDSEC;
END-ISO-10303-21;
