ISO-10303-21;
HEADER;
FILE_DESCRIPTION (( 'STEP AP203' ),
    '1' );
FILE_NAME ('d3d6.STEP',
    '2022-06-20T10:21:25',
    ( '' ),
    ( '' ),
    'SwSTEP 2.0',
    'SolidWorks 2019',
    '' );
FILE_SCHEMA (( 'CONFIG_CONTROL_DESIGN' ));
ENDSEC;

DATA;
#1 = CARTESIAN_POINT ( 'NONE',  ( 0.000000000000000000, 0.000000000000000000, 1.700000000000007061 ) ) ;
#2 = ADVANCED_FACE ( 'NONE', ( #97 ), #142, .T. ) ;
#3 = FACE_OUTER_BOUND ( 'NONE', #282, .T. ) ;
#4 = DIRECTION ( 'NONE',  ( 0.000000000000000000, 0.000000000000000000, 1.000000000000000000 ) ) ;
#5 = PERSON_AND_ORGANIZATION_ROLE ( 'creator' ) ;
#6 = FACE_OUTER_BOUND ( 'NONE', #123, .T. ) ;
#7 = EDGE_CURVE ( 'NONE', #87, #157, #207, .T. ) ;
#8 = PERSON_AND_ORGANIZATION_ROLE ( 'design_supplier' ) ;
#9 = LOCAL_TIME ( 12, 21, 25.00000000000000000, #208 ) ;
#10 = DIRECTION ( 'NONE',  ( 1.000000000000000000, 0.000000000000000000, 0.000000000000000000 ) ) ;
#11 = UNCERTAINTY_MEASURE_WITH_UNIT (LENGTH_MEASURE( 1.000000000000000082E-05 ), #130, 'distance_accuracy_value', 'NONE');
#12 = DATE_TIME_ROLE ( 'classification_date' ) ;
#13 = FACE_OUTER_BOUND ( 'NONE', #155, .T. ) ;
#14 = CC_DESIGN_PERSON_AND_ORGANIZATION_ASSIGNMENT ( #96, #103, ( #136 ) ) ;
#15 = DIRECTION ( 'NONE',  ( 1.000000000000000000, 0.000000000000000000, 0.000000000000000000 ) ) ;
#16 = AXIS2_PLACEMENT_3D ( 'NONE', #242, #150, #132 ) ;
#17 = CARTESIAN_POINT ( 'NONE',  ( -0.9499999999999999556, 0.000000000000000000, 101.5000000000000000 ) ) ;
#18 = EDGE_CURVE ( 'NONE', #278, #258, #59, .T. ) ;
#19 = ORIENTED_EDGE ( 'NONE', *, *, #178, .T. ) ;
#20 = AXIS2_PLACEMENT_3D ( 'NONE', #271, #174, #15 ) ;
#21 = ORIENTED_EDGE ( 'NONE', *, *, #234, .T. ) ;
#22 = EDGE_CURVE ( 'NONE', #88, #93, #120, .T. ) ;
#23 = DIRECTION ( 'NONE',  ( 1.000000000000000000, 0.000000000000000000, 0.000000000000000000 ) ) ;
#24 = ORIENTED_EDGE ( 'NONE', *, *, #289, .T. ) ;
#25 = AXIS2_PLACEMENT_3D ( 'NONE', #238, #219, #259 ) ;
#26 = COORDINATED_UNIVERSAL_TIME_OFFSET ( 1, 0, .AHEAD. ) ;
#27 = DIRECTION ( 'NONE',  ( -1.000000000000000000, 0.000000000000000000, 0.000000000000000000 ) ) ;
#28 = PRODUCT_RELATED_PRODUCT_CATEGORY ( 'detail', '', ( #193 ) ) ;
#29 = FACE_BOUND ( 'NONE', #280, .T. ) ;
#30 = FACE_OUTER_BOUND ( 'NONE', #206, .T. ) ;
#31 = AXIS2_PLACEMENT_3D ( 'NONE', #151, #38, #57 ) ;
#32 = ADVANCED_FACE ( 'NONE', ( #30 ), #49, .T. ) ;
#33 = ORIENTED_EDGE ( 'NONE', *, *, #296, .T. ) ;
#34 = CARTESIAN_POINT ( 'NONE',  ( 0.9499999999999999556, 1.163414459189985682E-16, 101.5000000000000000 ) ) ;
#35 = CC_DESIGN_APPROVAL ( #230, ( #92 ) ) ;
#36 = CALENDAR_DATE ( 2022, 20, 6 ) ;
#37 = CARTESIAN_POINT ( 'NONE',  ( -0.9499999999999999556, 0.000000000000000000, 101.5000000000000000 ) ) ;
#38 = DIRECTION ( 'NONE',  ( 0.000000000000000000, 0.000000000000000000, 1.000000000000000000 ) ) ;
#39 = DIRECTION ( 'NONE',  ( 0.000000000000000000, 0.000000000000000000, 1.000000000000000000 ) ) ;
#40 = EDGE_CURVE ( 'NONE', #133, #204, #194, .T. ) ;
#41 = CARTESIAN_POINT ( 'NONE',  ( 0.000000000000000000, 0.000000000000000000, 1.500000000000000000 ) ) ;
#42 = ORIENTED_EDGE ( 'NONE', *, *, #223, .F. ) ;
#43 = EDGE_LOOP ( 'NONE', ( #154, #47 ) ) ;
#44 = AXIS2_PLACEMENT_3D ( 'NONE', #198, #62, #81 ) ;
#45 = ORIENTED_EDGE ( 'NONE', *, *, #289, .F. ) ;
#46 = EDGE_CURVE ( 'NONE', #204, #133, #283, .T. ) ;
#47 = ORIENTED_EDGE ( 'NONE', *, *, #18, .T. ) ;
#48 = ADVANCED_FACE ( 'NONE', ( #168 ), #143, .T. ) ;
#49 = CYLINDRICAL_SURFACE ( 'NONE', #64, 2.000000000000000000 ) ;
#50 = CARTESIAN_POINT ( 'NONE',  ( 2.000000000000000000, 2.449293598294706414E-16, 1.500000000000000000 ) ) ;
#51 = ADVANCED_FACE ( 'NONE', ( #166 ), #261, .T. ) ;
#52 = APPROVAL_STATUS ( 'not_yet_approved' ) ;
#53 = CARTESIAN_POINT ( 'NONE',  ( -2.000000000000000000, 0.000000000000000000, 1.500000000000000000 ) ) ;
#54 = AXIS2_PLACEMENT_3D ( 'NONE', #60, #177, #106 ) ;
#55 = PRODUCT_DEFINITION_SHAPE ( 'NONE', 'NONE',  #92 ) ;
#56 = CARTESIAN_POINT ( 'NONE',  ( 0.000000000000000000, 0.000000000000000000, 101.5000000000000000 ) ) ;
#57 = DIRECTION ( 'NONE',  ( 1.000000000000000000, 0.000000000000000000, 0.000000000000000000 ) ) ;
#58 = COORDINATED_UNIVERSAL_TIME_OFFSET ( 1, 0, .AHEAD. ) ;
#59 = CIRCLE ( 'NONE', #25, 0.9499999999999999556 ) ;
#60 = CARTESIAN_POINT ( 'NONE',  ( 0.000000000000000000, 0.000000000000000000, 1.500000000000000000 ) ) ;
#61 = APPROVAL_PERSON_ORGANIZATION ( #263, #262, #141 ) ;
#62 = DIRECTION ( 'NONE',  ( -0.000000000000000000, -0.000000000000000000, -1.000000000000000000 ) ) ;
#63 = FACE_OUTER_BOUND ( 'NONE', #231, .T. ) ;
#64 = AXIS2_PLACEMENT_3D ( 'NONE', #139, #76, #27 ) ;
#65 = PLANE ( 'NONE',  #188 ) ;
#66 = CIRCLE ( 'NONE', #126, 2.000000000000000000 ) ;
#67 = VERTEX_POINT ( 'NONE', #72 ) ;
#68 = CC_DESIGN_PERSON_AND_ORGANIZATION_ASSIGNMENT ( #148, #8, ( #254 ) ) ;
#69 = CIRCLE ( 'NONE', #20, 2.000000000000000000 ) ;
#70 = CARTESIAN_POINT ( 'NONE',  ( 0.000000000000000000, 0.000000000000000000, 101.5000000000000000 ) ) ;
#71 = VERTEX_POINT ( 'NONE', #264 ) ;
#72 = CARTESIAN_POINT ( 'NONE',  ( -2.000000000000000000, 0.000000000000000000, 0.000000000000000000 ) ) ;
#73 = EDGE_CURVE ( 'NONE', #71, #67, #187, .T. ) ;
#74 = AXIS2_PLACEMENT_3D ( 'NONE', #213, #161, #288 ) ;
#75 = COORDINATED_UNIVERSAL_TIME_OFFSET ( 1, 0, .AHEAD. ) ;
#76 = DIRECTION ( 'NONE',  ( -0.000000000000000000, -0.000000000000000000, -1.000000000000000000 ) ) ;
#77 = DIRECTION ( 'NONE',  ( 0.000000000000000000, 0.000000000000000000, -1.000000000000000000 ) ) ;
#78 = PERSON_AND_ORGANIZATION_ROLE ( 'creator' ) ;
#79 = EDGE_CURVE ( 'NONE', #278, #133, #121, .T. ) ;
#80 = DATE_TIME_ROLE ( 'creation_date' ) ;
#81 = DIRECTION ( 'NONE',  ( 1.000000000000000000, 0.000000000000000000, 0.000000000000000000 ) ) ;
#82 =( GEOMETRIC_REPRESENTATION_CONTEXT ( 3 ) GLOBAL_UNCERTAINTY_ASSIGNED_CONTEXT ( ( #11 ) ) GLOBAL_UNIT_ASSIGNED_CONTEXT ( ( #130, #291, #222 ) ) REPRESENTATION_CONTEXT ( 'NONE', 'WORKASPACE' ) );
#83 = CARTESIAN_POINT ( 'NONE',  ( 1.149999999999999911, 0.000000000000000000, 1.500000000000003553 ) ) ;
#84 = ADVANCED_FACE ( 'NONE', ( #6 ), #253, .F. ) ;
#85 = CARTESIAN_POINT ( 'NONE',  ( -0.9499999999999999556, 0.000000000000000000, 1.700000000000007061 ) ) ;
#86 = ADVANCED_BREP_SHAPE_REPRESENTATION ( 'd3d6', ( #210, #152 ), #82 ) ;
#87 = VERTEX_POINT ( 'NONE', #164 ) ;
#88 = VERTEX_POINT ( 'NONE', #237 ) ;
#89 = ORIENTED_EDGE ( 'NONE', *, *, #79, .T. ) ;
#90 = APPROVAL_DATE_TIME ( #277, #230 ) ;
#91 = ORIENTED_EDGE ( 'NONE', *, *, #7, .T. ) ;
#92 = PRODUCT_DEFINITION ( 'NEZNÁMÝ', '', #254, #270 ) ;
#93 = VERTEX_POINT ( 'NONE', #195 ) ;
#94 = DIRECTION ( 'NONE',  ( -0.000000000000000000, -0.000000000000000000, -1.000000000000000000 ) ) ;
#95 = PLANE ( 'NONE',  #54 ) ;
#96 = PERSON_AND_ORGANIZATION ( #250, #137 ) ;
#97 = FACE_OUTER_BOUND ( 'NONE', #306, .T. ) ;
#98 = DIRECTION ( 'NONE',  ( 1.000000000000000000, 0.000000000000000000, 0.000000000000000000 ) ) ;
#99 = CALENDAR_DATE ( 2022, 20, 6 ) ;
#100 = CARTESIAN_POINT ( 'NONE',  ( 0.000000000000000000, 0.000000000000000000, 1.700000000000007061 ) ) ;
#101 = CIRCLE ( 'NONE', #162, 0.2000000000000000944 ) ;
#102 = ADVANCED_FACE ( 'NONE', ( #29, #3 ), #95, .T. ) ;
#103 = PERSON_AND_ORGANIZATION_ROLE ( 'classification_officer' ) ;
#104 = DIRECTION ( 'NONE',  ( 0.000000000000000000, 0.000000000000000000, 1.000000000000000000 ) ) ;
#105 = DIRECTION ( 'NONE',  ( 0.000000000000000000, 0.000000000000000000, 1.000000000000000000 ) ) ;
#106 = DIRECTION ( 'NONE',  ( 1.000000000000000000, 0.000000000000000000, -0.000000000000000000 ) ) ;
#107 = AXIS2_PLACEMENT_3D ( 'NONE', #189, #94, #286 ) ;
#108 = PERSON_AND_ORGANIZATION_ROLE ( 'design_owner' ) ;
#109 = ORIENTED_EDGE ( 'NONE', *, *, #223, .T. ) ;
#110 = ORIENTED_EDGE ( 'NONE', *, *, #234, .F. ) ;
#111 = CC_DESIGN_PERSON_AND_ORGANIZATION_ASSIGNMENT ( #256, #108, ( #193 ) ) ;
#112 = VECTOR ( 'NONE', #118, 1000.000000000000000 ) ;
#113 = ORIENTED_EDGE ( 'NONE', *, *, #124, .T. ) ;
#114 = LOCAL_TIME ( 12, 21, 25.00000000000000000, #58 ) ;
#115 = APPROVAL_DATE_TIME ( #224, #153 ) ;
#116 = ORIENTED_EDGE ( 'NONE', *, *, #46, .T. ) ;
#117 = DIRECTION ( 'NONE',  ( 1.000000000000000000, 0.000000000000000000, -0.000000000000000000 ) ) ;
#118 = DIRECTION ( 'NONE',  ( -0.000000000000000000, -0.000000000000000000, -1.000000000000000000 ) ) ;
#119 = APPROVAL_PERSON_ORGANIZATION ( #216, #153, #268 ) ;
#120 = LINE ( 'NONE', #50, #112 ) ;
#121 = LINE ( 'NONE', #34, #214 ) ;
#122 = CALENDAR_DATE ( 2022, 20, 6 ) ;
#123 = EDGE_LOOP ( 'NONE', ( #211, #251, #33, #249 ) ) ;
#124 = EDGE_CURVE ( 'NONE', #88, #71, #69, .T. ) ;
#125 = CARTESIAN_POINT ( 'NONE',  ( -1.149999999999999911, 1.408343819019456028E-16, 1.700000000000007061 ) ) ;
#126 = AXIS2_PLACEMENT_3D ( 'NONE', #41, #176, #10 ) ;
#127 = DATE_AND_TIME ( #36, #244 ) ;
#128 = CARTESIAN_POINT ( 'NONE',  ( 0.000000000000000000, 0.000000000000000000, 0.000000000000000000 ) ) ;
#129 = DIRECTION ( 'NONE',  ( 1.000000000000000000, 0.000000000000000000, 0.000000000000000000 ) ) ;
#130 =( LENGTH_UNIT ( ) NAMED_UNIT ( * ) SI_UNIT ( .MILLI., .METRE. ) );
#131 = CIRCLE ( 'NONE', #196, 0.2000000000000000944 ) ;
#132 = DIRECTION ( 'NONE',  ( -1.000000000000000000, 0.000000000000000000, 0.000000000000000000 ) ) ;
#133 = VERTEX_POINT ( 'NONE', #200 ) ;
#134 = ORIENTED_EDGE ( 'NONE', *, *, #183, .T. ) ;
#135 = ORIENTED_EDGE ( 'NONE', *, *, #18, .F. ) ;
#136 = SECURITY_CLASSIFICATION ( '', '', #145 ) ;
#137 = ORGANIZATION ( 'NEURÈENÝ', 'NEURÈENÝ', '' ) ;
#138 = DIRECTION ( 'NONE',  ( -0.000000000000000000, -0.000000000000000000, -1.000000000000000000 ) ) ;
#139 = CARTESIAN_POINT ( 'NONE',  ( 0.000000000000000000, 0.000000000000000000, 1.500000000000000000 ) ) ;
#140 = DIRECTION ( 'NONE',  ( -1.000000000000000000, 0.000000000000000000, 0.000000000000000000 ) ) ;
#141 = APPROVAL_ROLE ( '' ) ;
#142 = CYLINDRICAL_SURFACE ( 'NONE', #287, 0.9499999999999999556 ) ;
#143 = CYLINDRICAL_SURFACE ( 'NONE', #107, 2.000000000000000000 ) ;
#144 = AXIS2_PLACEMENT_3D ( 'NONE', #1, #4, #192 ) ;
#145 = SECURITY_CLASSIFICATION_LEVEL ( 'unclassified' ) ;
#146 = DIRECTION ( 'NONE',  ( 1.000000000000000000, 0.000000000000000000, -0.000000000000000000 ) ) ;
#147 = TOROIDAL_SURFACE ( 'NONE', #217, 1.149999999999999911, 0.2000000000000000111 ) ;
#148 = PERSON_AND_ORGANIZATION ( #250, #137 ) ;
#149 = CARTESIAN_POINT ( 'NONE',  ( 0.000000000000000000, 0.000000000000000000, 1.700000000000007061 ) ) ;
#150 = DIRECTION ( 'NONE',  ( -0.000000000000000000, -0.000000000000000000, -1.000000000000000000 ) ) ;
#151 = CARTESIAN_POINT ( 'NONE',  ( 0.000000000000000000, 0.000000000000000000, 101.5000000000000000 ) ) ;
#152 = AXIS2_PLACEMENT_3D ( 'NONE', #201, #181, #23 ) ;
#153 = APPROVAL ( #220, 'NEURÈENÝ' ) ;
#154 = ORIENTED_EDGE ( 'NONE', *, *, #167, .T. ) ;
#155 = EDGE_LOOP ( 'NONE', ( #180, #232, #24, #116 ) ) ;
#156 = PERSON_AND_ORGANIZATION ( #250, #137 ) ;
#157 = VERTEX_POINT ( 'NONE', #83 ) ;
#158 = LOCAL_TIME ( 12, 21, 25.00000000000000000, #26 ) ;
#159 = APPLICATION_PROTOCOL_DEFINITION ( 'international standard', 'config_control_design', 1994, #205 ) ;
#160 = ORIENTED_EDGE ( 'NONE', *, *, #22, .T. ) ;
#161 = DIRECTION ( 'NONE',  ( -0.000000000000000000, -0.000000000000000000, -1.000000000000000000 ) ) ;
#162 = AXIS2_PLACEMENT_3D ( 'NONE', #246, #247, #77 ) ;
#163 = ADVANCED_FACE ( 'NONE', ( #63 ), #65, .F. ) ;
#164 = CARTESIAN_POINT ( 'NONE',  ( -1.149999999999999911, 1.408343819019456028E-16, 1.500000000000003553 ) ) ;
#165 = DATE_AND_TIME ( #122, #227 ) ;
#166 = FACE_OUTER_BOUND ( 'NONE', #43, .T. ) ;
#167 = EDGE_CURVE ( 'NONE', #258, #278, #260, .T. ) ;
#168 = FACE_OUTER_BOUND ( 'NONE', #302, .T. ) ;
#169 = PERSON_AND_ORGANIZATION ( #250, #137 ) ;
#170 = DIRECTION ( 'NONE',  ( 1.000000000000000000, 0.000000000000000000, 0.000000000000000000 ) ) ;
#171 = COORDINATED_UNIVERSAL_TIME_OFFSET ( 1, 0, .AHEAD. ) ;
#172 = DIRECTION ( 'NONE',  ( -1.000000000000000000, 1.224646799147351975E-16, 0.000000000000000000 ) ) ;
#173 = AXIS2_PLACEMENT_3D ( 'NONE', #70, #241, #117 ) ;
#174 = DIRECTION ( 'NONE',  ( 0.000000000000000000, 0.000000000000000000, 1.000000000000000000 ) ) ;
#175 = VECTOR ( 'NONE', #197, 1000.000000000000000 ) ;
#176 = DIRECTION ( 'NONE',  ( 0.000000000000000000, 0.000000000000000000, 1.000000000000000000 ) ) ;
#177 = DIRECTION ( 'NONE',  ( 0.000000000000000000, 0.000000000000000000, 1.000000000000000000 ) ) ;
#178 = EDGE_CURVE ( 'NONE', #204, #87, #131, .T. ) ;
#179 = APPROVAL_ROLE ( '' ) ;
#180 = ORIENTED_EDGE ( 'NONE', *, *, #79, .F. ) ;
#181 = DIRECTION ( 'NONE',  ( 0.000000000000000000, 0.000000000000000000, 1.000000000000000000 ) ) ;
#182 = ORIENTED_EDGE ( 'NONE', *, *, #46, .F. ) ;
#183 = EDGE_CURVE ( 'NONE', #71, #88, #66, .T. ) ;
#184 = APPROVAL_PERSON_ORGANIZATION ( #156, #230, #179 ) ;
#185 = ORIENTED_EDGE ( 'NONE', *, *, #73, .F. ) ;
#186 = ORIENTED_EDGE ( 'NONE', *, *, #296, .F. ) ;
#187 = LINE ( 'NONE', #53, #274 ) ;
#188 = AXIS2_PLACEMENT_3D ( 'NONE', #267, #105, #146 ) ;
#189 = CARTESIAN_POINT ( 'NONE',  ( 0.000000000000000000, 0.000000000000000000, 1.500000000000000000 ) ) ;
#190 = APPLICATION_CONTEXT ( 'configuration controlled 3d designs of mechanical parts and assemblies' ) ;
#191 = APPROVAL_DATE_TIME ( #165, #262 ) ;
#192 = DIRECTION ( 'NONE',  ( 1.000000000000000000, 0.000000000000000000, 0.000000000000000000 ) ) ;
#193 = PRODUCT ( 'd3d6', 'd3d6', '', ( #301 ) ) ;
#194 = CIRCLE ( 'NONE', #233, 0.9499999999999999556 ) ;
#195 = CARTESIAN_POINT ( 'NONE',  ( 2.000000000000000000, 2.449293598294706414E-16, 0.000000000000000000 ) ) ;
#196 = AXIS2_PLACEMENT_3D ( 'NONE', #125, #297, #172 ) ;
#197 = DIRECTION ( 'NONE',  ( -0.000000000000000000, -0.000000000000000000, -1.000000000000000000 ) ) ;
#198 = CARTESIAN_POINT ( 'NONE',  ( 0.000000000000000000, 0.000000000000000000, 1.500000000000000000 ) ) ;
#199 = CC_DESIGN_SECURITY_CLASSIFICATION ( #136, ( #254 ) ) ;
#200 = CARTESIAN_POINT ( 'NONE',  ( 0.9499999999999999556, 1.163414459189985682E-16, 1.700000000000007061 ) ) ;
#201 = CARTESIAN_POINT ( 'NONE',  ( 0.000000000000000000, 0.000000000000000000, 0.000000000000000000 ) ) ;
#202 = CC_DESIGN_APPROVAL ( #153, ( #254 ) ) ;
#203 = ORIENTED_EDGE ( 'NONE', *, *, #40, .T. ) ;
#204 = VERTEX_POINT ( 'NONE', #85 ) ;
#205 = APPLICATION_CONTEXT ( 'configuration controlled 3d designs of mechanical parts and assemblies' ) ;
#206 = EDGE_LOOP ( 'NONE', ( #307, #285, #229, #21 ) ) ;
#207 = CIRCLE ( 'NONE', #74, 1.149999999999999911 ) ;
#208 = COORDINATED_UNIVERSAL_TIME_OFFSET ( 1, 0, .AHEAD. ) ;
#209 = ORIENTED_EDGE ( 'NONE', *, *, #266, .T. ) ;
#210 = MANIFOLD_SOLID_BREP ( 'Zaoblit1', #304 ) ;
#211 = ORIENTED_EDGE ( 'NONE', *, *, #178, .F. ) ;
#212 = CC_DESIGN_DATE_AND_TIME_ASSIGNMENT ( #127, #12, ( #136 ) ) ;
#213 = CARTESIAN_POINT ( 'NONE',  ( 0.000000000000000000, 0.000000000000000000, 1.500000000000000000 ) ) ;
#214 = VECTOR ( 'NONE', #265, 1000.000000000000000 ) ;
#215 = DIRECTION ( 'NONE',  ( 0.000000000000000000, 0.000000000000000000, 1.000000000000000000 ) ) ;
#216 = PERSON_AND_ORGANIZATION ( #250, #137 ) ;
#217 = AXIS2_PLACEMENT_3D ( 'NONE', #149, #39, #129 ) ;
#218 = DIRECTION ( 'NONE',  ( 1.000000000000000000, 0.000000000000000000, 0.000000000000000000 ) ) ;
#219 = DIRECTION ( 'NONE',  ( 0.000000000000000000, 0.000000000000000000, 1.000000000000000000 ) ) ;
#220 = APPROVAL_STATUS ( 'not_yet_approved' ) ;
#221 = AXIS2_PLACEMENT_3D ( 'NONE', #100, #284, #98 ) ;
#222 =( NAMED_UNIT ( * ) SI_UNIT ( $, .STERADIAN. ) SOLID_ANGLE_UNIT ( ) );
#223 = EDGE_CURVE ( 'NONE', #157, #87, #275, .T. ) ;
#224 = DATE_AND_TIME ( #99, #158 ) ;
#225 = DIRECTION ( 'NONE',  ( 0.000000000000000000, 0.000000000000000000, 1.000000000000000000 ) ) ;
#226 = CC_DESIGN_DATE_AND_TIME_ASSIGNMENT ( #243, #80, ( #92 ) ) ;
#227 = LOCAL_TIME ( 12, 21, 25.00000000000000000, #75 ) ;
#228 = LINE ( 'NONE', #17, #175 ) ;
#229 = ORIENTED_EDGE ( 'NONE', *, *, #73, .T. ) ;
#230 = APPROVAL ( #300, 'NEURÈENÝ' ) ;
#231 = EDGE_LOOP ( 'NONE', ( #110, #303 ) ) ;
#232 = ORIENTED_EDGE ( 'NONE', *, *, #167, .F. ) ;
#233 = AXIS2_PLACEMENT_3D ( 'NONE', #236, #215, #218 ) ;
#234 = EDGE_CURVE ( 'NONE', #67, #93, #299, .T. ) ;
#235 = CIRCLE ( 'NONE', #248, 2.000000000000000000 ) ;
#236 = CARTESIAN_POINT ( 'NONE',  ( 0.000000000000000000, 0.000000000000000000, 1.700000000000007061 ) ) ;
#237 = CARTESIAN_POINT ( 'NONE',  ( 2.000000000000000000, 2.449293598294706414E-16, 1.500000000000000000 ) ) ;
#238 = CARTESIAN_POINT ( 'NONE',  ( 0.000000000000000000, 0.000000000000000000, 101.5000000000000000 ) ) ;
#239 = DIRECTION ( 'NONE',  ( -0.000000000000000000, -0.000000000000000000, -1.000000000000000000 ) ) ;
#240 = SHAPE_DEFINITION_REPRESENTATION ( #55, #86 ) ;
#241 = DIRECTION ( 'NONE',  ( 0.000000000000000000, 0.000000000000000000, 1.000000000000000000 ) ) ;
#242 = CARTESIAN_POINT ( 'NONE',  ( 0.000000000000000000, 0.000000000000000000, 101.5000000000000000 ) ) ;
#243 = DATE_AND_TIME ( #293, #114 ) ;
#244 = LOCAL_TIME ( 12, 21, 25.00000000000000000, #171 ) ;
#245 = CARTESIAN_POINT ( 'NONE',  ( 0.000000000000000000, 0.000000000000000000, 0.000000000000000000 ) ) ;
#246 = CARTESIAN_POINT ( 'NONE',  ( 1.149999999999999911, 0.000000000000000000, 1.700000000000007061 ) ) ;
#247 = DIRECTION ( 'NONE',  ( 0.000000000000000000, -1.000000000000000000, 0.000000000000000000 ) ) ;
#248 = AXIS2_PLACEMENT_3D ( 'NONE', #128, #225, #170 ) ;
#249 = ORIENTED_EDGE ( 'NONE', *, *, #7, .F. ) ;
#250 = PERSON ( 'NEURÈENÝ', 'NEURÈENÝ', 'NEURÈENÝ', ('NEURÈENÝ'), ('NEURÈENÝ'), ('NEURÈENÝ') ) ;
#251 = ORIENTED_EDGE ( 'NONE', *, *, #40, .F. ) ;
#252 = CC_DESIGN_PERSON_AND_ORGANIZATION_ASSIGNMENT ( #292, #5, ( #92 ) ) ;
#253 = TOROIDAL_SURFACE ( 'NONE', #221, 1.149999999999999911, 0.2000000000000000111 ) ;
#254 = PRODUCT_DEFINITION_FORMATION_WITH_SPECIFIED_SOURCE ( 'LIBOVOLNÝ', '', #193, .NOT_KNOWN. ) ;
#255 = EDGE_LOOP ( 'NONE', ( #182, #19, #42, #186 ) ) ;
#256 = PERSON_AND_ORGANIZATION ( #250, #137 ) ;
#257 = ORIENTED_EDGE ( 'NONE', *, *, #124, .F. ) ;
#258 = VERTEX_POINT ( 'NONE', #37 ) ;
#259 = DIRECTION ( 'NONE',  ( 1.000000000000000000, 0.000000000000000000, 0.000000000000000000 ) ) ;
#260 = CIRCLE ( 'NONE', #31, 0.9499999999999999556 ) ;
#261 = PLANE ( 'NONE',  #173 ) ;
#262 = APPROVAL ( #52, 'NEURÈENÝ' ) ;
#263 = PERSON_AND_ORGANIZATION ( #250, #137 ) ;
#264 = CARTESIAN_POINT ( 'NONE',  ( -2.000000000000000000, 0.000000000000000000, 1.500000000000000000 ) ) ;
#265 = DIRECTION ( 'NONE',  ( -0.000000000000000000, -0.000000000000000000, -1.000000000000000000 ) ) ;
#266 = EDGE_CURVE ( 'NONE', #93, #67, #235, .T. ) ;
#267 = CARTESIAN_POINT ( 'NONE',  ( 0.000000000000000000, 0.000000000000000000, 0.000000000000000000 ) ) ;
#268 = APPROVAL_ROLE ( '' ) ;
#269 = DIRECTION ( 'NONE',  ( 1.000000000000000000, 0.000000000000000000, 0.000000000000000000 ) ) ;
#270 = DESIGN_CONTEXT ( 'detailed design', #190, 'design' ) ;
#271 = CARTESIAN_POINT ( 'NONE',  ( 0.000000000000000000, 0.000000000000000000, 1.500000000000000000 ) ) ;
#272 = CYLINDRICAL_SURFACE ( 'NONE', #16, 0.9499999999999999556 ) ;
#273 = CARTESIAN_POINT ( 'NONE',  ( 0.9499999999999999556, 1.163414459189985682E-16, 101.5000000000000000 ) ) ;
#274 = VECTOR ( 'NONE', #239, 1000.000000000000000 ) ;
#275 = CIRCLE ( 'NONE', #44, 1.149999999999999911 ) ;
#276 = ADVANCED_FACE ( 'NONE', ( #13 ), #272, .T. ) ;
#277 = DATE_AND_TIME ( #305, #9 ) ;
#278 = VERTEX_POINT ( 'NONE', #273 ) ;
#279 = APPLICATION_PROTOCOL_DEFINITION ( 'international standard', 'config_control_design', 1994, #190 ) ;
#280 = EDGE_LOOP ( 'NONE', ( #109, #91 ) ) ;
#281 = CC_DESIGN_PERSON_AND_ORGANIZATION_ASSIGNMENT ( #169, #78, ( #254 ) ) ;
#282 = EDGE_LOOP ( 'NONE', ( #134, #113 ) ) ;
#283 = CIRCLE ( 'NONE', #144, 0.9499999999999999556 ) ;
#284 = DIRECTION ( 'NONE',  ( 0.000000000000000000, 0.000000000000000000, 1.000000000000000000 ) ) ;
#285 = ORIENTED_EDGE ( 'NONE', *, *, #183, .F. ) ;
#286 = DIRECTION ( 'NONE',  ( -1.000000000000000000, 0.000000000000000000, 0.000000000000000000 ) ) ;
#287 = AXIS2_PLACEMENT_3D ( 'NONE', #56, #138, #140 ) ;
#288 = DIRECTION ( 'NONE',  ( 1.000000000000000000, 0.000000000000000000, 0.000000000000000000 ) ) ;
#289 = EDGE_CURVE ( 'NONE', #258, #204, #228, .T. ) ;
#290 = CC_DESIGN_APPROVAL ( #262, ( #136 ) ) ;
#291 =( NAMED_UNIT ( * ) PLANE_ANGLE_UNIT ( ) SI_UNIT ( $, .RADIAN. ) );
#292 = PERSON_AND_ORGANIZATION ( #250, #137 ) ;
#293 = CALENDAR_DATE ( 2022, 20, 6 ) ;
#294 = AXIS2_PLACEMENT_3D ( 'NONE', #245, #104, #269 ) ;
#295 = FACE_OUTER_BOUND ( 'NONE', #255, .T. ) ;
#296 = EDGE_CURVE ( 'NONE', #133, #157, #101, .T. ) ;
#297 = DIRECTION ( 'NONE',  ( 1.224646799147353207E-16, 1.000000000000000000, -0.000000000000000000 ) ) ;
#298 = ADVANCED_FACE ( 'NONE', ( #295 ), #147, .F. ) ;
#299 = CIRCLE ( 'NONE', #294, 2.000000000000000000 ) ;
#300 = APPROVAL_STATUS ( 'not_yet_approved' ) ;
#301 = MECHANICAL_CONTEXT ( 'NONE', #205, 'mechanical' ) ;
#302 = EDGE_LOOP ( 'NONE', ( #257, #160, #209, #185 ) ) ;
#303 = ORIENTED_EDGE ( 'NONE', *, *, #266, .F. ) ;
#304 = CLOSED_SHELL ( 'NONE', ( #298, #2, #48, #32, #102, #163, #276, #51, #84 ) ) ;
#305 = CALENDAR_DATE ( 2022, 20, 6 ) ;
#306 = EDGE_LOOP ( 'NONE', ( #135, #89, #203, #45 ) ) ;
#307 = ORIENTED_EDGE ( 'NONE', *, *, #22, .F. ) ;
ENDSEC;
END-ISO-10303-21;
