ISO-10303-21;
HEADER;
FILE_DESCRIPTION (( 'STEP AP203' ),
    '1' );
FILE_NAME ('cde5.STEP',
    '2022-06-20T09:20:59',
    ( '' ),
    ( '' ),
    'SwSTEP 2.0',
    'SolidWorks 2019',
    '' );
FILE_SCHEMA (( 'CONFIG_CONTROL_DESIGN' ));
ENDSEC;

DATA;
#1 = DATE_AND_TIME ( #252, #128 ) ;
#2 = DIRECTION ( 'NONE',  ( 1.000000000000000000, 0.000000000000000000, 0.000000000000000000 ) ) ;
#3 = CIRCLE ( 'NONE', #198, 9.000000000000000000 ) ;
#4 = VERTEX_POINT ( 'NONE', #35 ) ;
#5 = ORIENTED_EDGE ( 'NONE', *, *, #88, .T. ) ;
#6 = CARTESIAN_POINT ( 'NONE',  ( 0.000000000000000000, 0.000000000000000000, 1006.999999999999886 ) ) ;
#7 = VERTEX_POINT ( 'NONE', #273 ) ;
#8 = CARTESIAN_POINT ( 'NONE',  ( -12.00000000000000178, 0.000000000000000000, 7.000000000000000000 ) ) ;
#9 = ADVANCED_FACE ( 'NONE', ( #131 ), #150, .F. ) ;
#10 = EDGE_CURVE ( 'NONE', #275, #78, #61, .T. ) ;
#11 = CYLINDRICAL_SURFACE ( 'NONE', #112, 9.000000000000000000 ) ;
#12 = CIRCLE ( 'NONE', #293, 9.000000000000000000 ) ;
#13 = CARTESIAN_POINT ( 'NONE',  ( 12.00000000000000178, 1.469576158976824144E-15, 0.000000000000000000 ) ) ;
#14 = AXIS2_PLACEMENT_3D ( 'NONE', #94, #194, #164 ) ;
#15 = CC_DESIGN_PERSON_AND_ORGANIZATION_ASSIGNMENT ( #199, #105, ( #190 ) ) ;
#16 = DIRECTION ( 'NONE',  ( 0.000000000000000000, 0.000000000000000000, 1.000000000000000000 ) ) ;
#17 = CARTESIAN_POINT ( 'NONE',  ( 9.199999999999999289, 0.000000000000000000, 7.199999999999984190 ) ) ;
#18 = EDGE_CURVE ( 'NONE', #78, #7, #241, .T. ) ;
#19 = AXIS2_PLACEMENT_3D ( 'NONE', #30, #182, #111 ) ;
#20 = AXIS2_PLACEMENT_3D ( 'NONE', #142, #139, #235 ) ;
#21 = PERSON_AND_ORGANIZATION_ROLE ( 'design_supplier' ) ;
#22 = PERSON ( 'NEURÈENÝ', 'NEURÈENÝ', 'NEURÈENÝ', ('NEURÈENÝ'), ('NEURÈENÝ'), ('NEURÈENÝ') ) ;
#23 = AXIS2_PLACEMENT_3D ( 'NONE', #126, #149, #223 ) ;
#24 = CALENDAR_DATE ( 2022, 20, 6 ) ;
#25 = ORIENTED_EDGE ( 'NONE', *, *, #10, .F. ) ;
#26 = ORIENTED_EDGE ( 'NONE', *, *, #245, .T. ) ;
#27 = SHAPE_DEFINITION_REPRESENTATION ( #124, #229 ) ;
#28 = ORIENTED_EDGE ( 'NONE', *, *, #57, .F. ) ;
#29 = VECTOR ( 'NONE', #258, 1000.000000000000000 ) ;
#30 = CARTESIAN_POINT ( 'NONE',  ( 0.000000000000000000, 0.000000000000000000, 0.000000000000000000 ) ) ;
#31 = ORIENTED_EDGE ( 'NONE', *, *, #193, .T. ) ;
#32 = DESIGN_CONTEXT ( 'detailed design', #63, 'design' ) ;
#33 = MANIFOLD_SOLID_BREP ( 'Zaoblit1', #185 ) ;
#34 = PERSON_AND_ORGANIZATION ( #22, #137 ) ;
#35 = CARTESIAN_POINT ( 'NONE',  ( -9.000000000000000000, 0.000000000000000000, 7.199999999999984190 ) ) ;
#36 = CARTESIAN_POINT ( 'NONE',  ( -9.199999999999999289, 1.126675055215564822E-15, 6.999999999999992006 ) ) ;
#37 = DIRECTION ( 'NONE',  ( 0.000000000000000000, 0.000000000000000000, 1.000000000000000000 ) ) ;
#38 = DIRECTION ( 'NONE',  ( 1.224646799147353207E-16, 1.000000000000000000, -0.000000000000000000 ) ) ;
#39 = CIRCLE ( 'NONE', #19, 12.00000000000000178 ) ;
#40 = EDGE_CURVE ( 'NONE', #83, #4, #145, .T. ) ;
#41 = DIRECTION ( 'NONE',  ( 0.000000000000000000, -1.000000000000000000, 0.000000000000000000 ) ) ;
#42 =( GEOMETRIC_REPRESENTATION_CONTEXT ( 3 ) GLOBAL_UNCERTAINTY_ASSIGNED_CONTEXT ( ( #100 ) ) GLOBAL_UNIT_ASSIGNED_CONTEXT ( ( #195, #242, #267 ) ) REPRESENTATION_CONTEXT ( 'NONE', 'WORKASPACE' ) );
#43 = LINE ( 'NONE', #284, #29 ) ;
#44 = APPROVAL_DATE_TIME ( #46, #117 ) ;
#45 = AXIS2_PLACEMENT_3D ( 'NONE', #68, #38, #282 ) ;
#46 = DATE_AND_TIME ( #75, #279 ) ;
#47 = CIRCLE ( 'NONE', #132, 0.1999999999999996503 ) ;
#48 = CARTESIAN_POINT ( 'NONE',  ( 0.000000000000000000, 0.000000000000000000, 1006.999999999999886 ) ) ;
#49 = EDGE_LOOP ( 'NONE', ( #289, #85 ) ) ;
#50 = CYLINDRICAL_SURFACE ( 'NONE', #80, 12.00000000000000178 ) ;
#51 = DIRECTION ( 'NONE',  ( 0.000000000000000000, 0.000000000000000000, 1.000000000000000000 ) ) ;
#52 = AXIS2_PLACEMENT_3D ( 'NONE', #143, #74, #188 ) ;
#53 = ORIENTED_EDGE ( 'NONE', *, *, #135, .F. ) ;
#54 = ORIENTED_EDGE ( 'NONE', *, *, #281, .F. ) ;
#55 = CIRCLE ( 'NONE', #52, 9.199999999999999289 ) ;
#56 = DIRECTION ( 'NONE',  ( 0.000000000000000000, 0.000000000000000000, 1.000000000000000000 ) ) ;
#57 = EDGE_CURVE ( 'NONE', #183, #83, #277, .T. ) ;
#58 = CIRCLE ( 'NONE', #200, 12.00000000000000178 ) ;
#59 = PERSON_AND_ORGANIZATION ( #22, #137 ) ;
#60 = LOCAL_TIME ( 11, 20, 59.00000000000000000, #175 ) ;
#61 = LINE ( 'NONE', #231, #110 ) ;
#62 = EDGE_CURVE ( 'NONE', #7, #78, #39, .T. ) ;
#63 = APPLICATION_CONTEXT ( 'configuration controlled 3d designs of mechanical parts and assemblies' ) ;
#64 = COORDINATED_UNIVERSAL_TIME_OFFSET ( 1, 0, .AHEAD. ) ;
#65 = ORIENTED_EDGE ( 'NONE', *, *, #292, .F. ) ;
#66 = DIRECTION ( 'NONE',  ( -0.000000000000000000, -0.000000000000000000, -1.000000000000000000 ) ) ;
#67 = VECTOR ( 'NONE', #66, 1000.000000000000000 ) ;
#68 = CARTESIAN_POINT ( 'NONE',  ( -9.199999999999999289, 1.126675055215564822E-15, 7.199999999999984190 ) ) ;
#69 = AXIS2_PLACEMENT_3D ( 'NONE', #213, #37, #297 ) ;
#70 = LOCAL_TIME ( 11, 20, 59.00000000000000000, #176 ) ;
#71 = EDGE_CURVE ( 'NONE', #4, #83, #3, .T. ) ;
#72 = CARTESIAN_POINT ( 'NONE',  ( 0.000000000000000000, 0.000000000000000000, 1006.999999999999886 ) ) ;
#73 = DIRECTION ( 'NONE',  ( 1.000000000000000000, 0.000000000000000000, -0.000000000000000000 ) ) ;
#74 = DIRECTION ( 'NONE',  ( -0.000000000000000000, -0.000000000000000000, -1.000000000000000000 ) ) ;
#75 = CALENDAR_DATE ( 2022, 20, 6 ) ;
#76 = EDGE_CURVE ( 'NONE', #230, #183, #12, .T. ) ;
#77 = APPROVAL_STATUS ( 'not_yet_approved' ) ;
#78 = VERTEX_POINT ( 'NONE', #13 ) ;
#79 = PERSON_AND_ORGANIZATION ( #22, #137 ) ;
#80 = AXIS2_PLACEMENT_3D ( 'NONE', #107, #265, #169 ) ;
#81 = PRODUCT_DEFINITION ( 'NEZNÁMÝ', '', #187, #32 ) ;
#82 = APPROVAL_DATE_TIME ( #286, #274 ) ;
#83 = VERTEX_POINT ( 'NONE', #283 ) ;
#84 = TOROIDAL_SURFACE ( 'NONE', #269, 9.199999999999999289, 0.2000000000000000111 ) ;
#85 = ORIENTED_EDGE ( 'NONE', *, *, #18, .F. ) ;
#86 = APPROVAL_DATE_TIME ( #1, #294 ) ;
#87 = ORIENTED_EDGE ( 'NONE', *, *, #40, .F. ) ;
#88 = EDGE_CURVE ( 'NONE', #4, #114, #305, .T. ) ;
#89 = DATE_TIME_ROLE ( 'classification_date' ) ;
#90 = DIRECTION ( 'NONE',  ( -0.000000000000000000, -0.000000000000000000, -1.000000000000000000 ) ) ;
#91 = EDGE_LOOP ( 'NONE', ( #171, #271 ) ) ;
#92 = EDGE_LOOP ( 'NONE', ( #152, #5, #53, #244 ) ) ;
#93 = FACE_OUTER_BOUND ( 'NONE', #133, .T. ) ;
#94 = CARTESIAN_POINT ( 'NONE',  ( 0.000000000000000000, 0.000000000000000000, 7.000000000000000000 ) ) ;
#95 = APPROVAL_PERSON_ORGANIZATION ( #79, #274, #201 ) ;
#96 = FACE_BOUND ( 'NONE', #91, .T. ) ;
#97 = ADVANCED_FACE ( 'NONE', ( #93 ), #212, .T. ) ;
#98 = ORIENTED_EDGE ( 'NONE', *, *, #18, .T. ) ;
#99 = DIRECTION ( 'NONE',  ( -0.000000000000000000, -0.000000000000000000, -1.000000000000000000 ) ) ;
#100 = UNCERTAINTY_MEASURE_WITH_UNIT (LENGTH_MEASURE( 1.000000000000000082E-05 ), #195, 'distance_accuracy_value', 'NONE');
#101 = CARTESIAN_POINT ( 'NONE',  ( 9.199999999999999289, 0.000000000000000000, 6.999999999999992006 ) ) ;
#102 = AXIS2_PLACEMENT_3D ( 'NONE', #72, #302, #298 ) ;
#103 = FACE_OUTER_BOUND ( 'NONE', #217, .T. ) ;
#104 = DIRECTION ( 'NONE',  ( 1.000000000000000000, 0.000000000000000000, 0.000000000000000000 ) ) ;
#105 = PERSON_AND_ORGANIZATION_ROLE ( 'design_owner' ) ;
#106 = AXIS2_PLACEMENT_3D ( 'NONE', #259, #192, #73 ) ;
#107 = CARTESIAN_POINT ( 'NONE',  ( 0.000000000000000000, 0.000000000000000000, 7.000000000000000000 ) ) ;
#108 = COORDINATED_UNIVERSAL_TIME_OFFSET ( 1, 0, .AHEAD. ) ;
#109 = EDGE_LOOP ( 'NONE', ( #130, #87, #31, #65 ) ) ;
#110 = VECTOR ( 'NONE', #90, 1000.000000000000000 ) ;
#111 = DIRECTION ( 'NONE',  ( 1.000000000000000000, 0.000000000000000000, 0.000000000000000000 ) ) ;
#112 = AXIS2_PLACEMENT_3D ( 'NONE', #280, #216, #301 ) ;
#113 = CC_DESIGN_PERSON_AND_ORGANIZATION_ASSIGNMENT ( #263, #21, ( #187 ) ) ;
#114 = VERTEX_POINT ( 'NONE', #36 ) ;
#115 = ORIENTED_EDGE ( 'NONE', *, *, #245, .F. ) ;
#116 = ORIENTED_EDGE ( 'NONE', *, *, #76, .F. ) ;
#117 = APPROVAL ( #77, 'NEURÈENÝ' ) ;
#118 = CC_DESIGN_SECURITY_CLASSIFICATION ( #148, ( #187 ) ) ;
#119 = ORIENTED_EDGE ( 'NONE', *, *, #251, .F. ) ;
#120 = DIRECTION ( 'NONE',  ( 0.000000000000000000, 0.000000000000000000, -1.000000000000000000 ) ) ;
#121 = PLANE ( 'NONE',  #102 ) ;
#122 = PLANE ( 'NONE',  #106 ) ;
#123 = FACE_OUTER_BOUND ( 'NONE', #49, .T. ) ;
#124 = PRODUCT_DEFINITION_SHAPE ( 'NONE', 'NONE',  #81 ) ;
#125 = DIRECTION ( 'NONE',  ( 0.000000000000000000, 0.000000000000000000, 1.000000000000000000 ) ) ;
#126 = CARTESIAN_POINT ( 'NONE',  ( 0.000000000000000000, 0.000000000000000000, 0.000000000000000000 ) ) ;
#127 = CARTESIAN_POINT ( 'NONE',  ( 0.000000000000000000, 0.000000000000000000, 7.000000000000000000 ) ) ;
#128 = LOCAL_TIME ( 11, 20, 59.00000000000000000, #64 ) ;
#129 = MECHANICAL_CONTEXT ( 'NONE', #270, 'mechanical' ) ;
#130 = ORIENTED_EDGE ( 'NONE', *, *, #88, .F. ) ;
#131 = FACE_OUTER_BOUND ( 'NONE', #109, .T. ) ;
#132 = AXIS2_PLACEMENT_3D ( 'NONE', #17, #41, #120 ) ;
#133 = EDGE_LOOP ( 'NONE', ( #25, #222, #26, #158 ) ) ;
#134 = DIRECTION ( 'NONE',  ( 1.000000000000000000, 0.000000000000000000, 0.000000000000000000 ) ) ;
#135 = EDGE_CURVE ( 'NONE', #178, #114, #55, .T. ) ;
#136 = DIRECTION ( 'NONE',  ( 0.000000000000000000, 0.000000000000000000, 1.000000000000000000 ) ) ;
#137 = ORGANIZATION ( 'NEURÈENÝ', 'NEURÈENÝ', '' ) ;
#138 = CC_DESIGN_APPROVAL ( #294, ( #148 ) ) ;
#139 = DIRECTION ( 'NONE',  ( -0.000000000000000000, -0.000000000000000000, -1.000000000000000000 ) ) ;
#140 = DIRECTION ( 'NONE',  ( -1.000000000000000000, 0.000000000000000000, 0.000000000000000000 ) ) ;
#141 = FACE_OUTER_BOUND ( 'NONE', #184, .T. ) ;
#142 = CARTESIAN_POINT ( 'NONE',  ( 0.000000000000000000, 0.000000000000000000, 1006.999999999999886 ) ) ;
#143 = CARTESIAN_POINT ( 'NONE',  ( 0.000000000000000000, 0.000000000000000000, 7.000000000000000000 ) ) ;
#144 = PERSON_AND_ORGANIZATION ( #22, #137 ) ;
#145 = CIRCLE ( 'NONE', #153, 9.000000000000000000 ) ;
#146 = DIRECTION ( 'NONE',  ( -0.000000000000000000, -0.000000000000000000, -1.000000000000000000 ) ) ;
#147 = ORIENTED_EDGE ( 'NONE', *, *, #71, .T. ) ;
#148 = SECURITY_CLASSIFICATION ( '', '', #197 ) ;
#149 = DIRECTION ( 'NONE',  ( 0.000000000000000000, 0.000000000000000000, 1.000000000000000000 ) ) ;
#150 = TOROIDAL_SURFACE ( 'NONE', #172, 9.199999999999999289, 0.2000000000000000111 ) ;
#151 = APPROVAL_ROLE ( '' ) ;
#152 = ORIENTED_EDGE ( 'NONE', *, *, #71, .F. ) ;
#153 = AXIS2_PLACEMENT_3D ( 'NONE', #180, #56, #296 ) ;
#154 = CALENDAR_DATE ( 2022, 20, 6 ) ;
#155 = ORIENTED_EDGE ( 'NONE', *, *, #251, .T. ) ;
#156 = COORDINATED_UNIVERSAL_TIME_OFFSET ( 1, 0, .AHEAD. ) ;
#157 = DIRECTION ( 'NONE',  ( 0.000000000000000000, 0.000000000000000000, 1.000000000000000000 ) ) ;
#158 = ORIENTED_EDGE ( 'NONE', *, *, #62, .T. ) ;
#159 = PLANE ( 'NONE',  #69 ) ;
#160 = CC_DESIGN_APPROVAL ( #117, ( #187 ) ) ;
#161 = FACE_OUTER_BOUND ( 'NONE', #295, .T. ) ;
#162 = CC_DESIGN_PERSON_AND_ORGANIZATION_ASSIGNMENT ( #240, #170, ( #187 ) ) ;
#163 = CARTESIAN_POINT ( 'NONE',  ( -12.00000000000000178, 0.000000000000000000, 7.000000000000000000 ) ) ;
#164 = DIRECTION ( 'NONE',  ( 1.000000000000000000, 0.000000000000000000, 0.000000000000000000 ) ) ;
#165 = AXIS2_PLACEMENT_3D ( 'NONE', #218, #99, #140 ) ;
#166 = CC_DESIGN_DATE_AND_TIME_ASSIGNMENT ( #225, #262, ( #81 ) ) ;
#167 = DIRECTION ( 'NONE',  ( 1.000000000000000000, 0.000000000000000000, 0.000000000000000000 ) ) ;
#168 = LOCAL_TIME ( 11, 20, 59.00000000000000000, #156 ) ;
#169 = DIRECTION ( 'NONE',  ( -1.000000000000000000, 0.000000000000000000, 0.000000000000000000 ) ) ;
#170 = PERSON_AND_ORGANIZATION_ROLE ( 'creator' ) ;
#171 = ORIENTED_EDGE ( 'NONE', *, *, #135, .T. ) ;
#172 = AXIS2_PLACEMENT_3D ( 'NONE', #207, #136, #288 ) ;
#173 = PERSON_AND_ORGANIZATION_ROLE ( 'creator' ) ;
#174 = ADVANCED_FACE ( 'NONE', ( #219 ), #234, .T. ) ;
#175 = COORDINATED_UNIVERSAL_TIME_OFFSET ( 1, 0, .AHEAD. ) ;
#176 = COORDINATED_UNIVERSAL_TIME_OFFSET ( 1, 0, .AHEAD. ) ;
#177 = ADVANCED_FACE ( 'NONE', ( #96, #161 ), #122, .T. ) ;
#178 = VERTEX_POINT ( 'NONE', #101 ) ;
#179 = ORIENTED_EDGE ( 'NONE', *, *, #233, .T. ) ;
#180 = CARTESIAN_POINT ( 'NONE',  ( 0.000000000000000000, 0.000000000000000000, 7.199999999999984190 ) ) ;
#181 = CC_DESIGN_DATE_AND_TIME_ASSIGNMENT ( #206, #89, ( #148 ) ) ;
#182 = DIRECTION ( 'NONE',  ( 0.000000000000000000, 0.000000000000000000, 1.000000000000000000 ) ) ;
#183 = VERTEX_POINT ( 'NONE', #239 ) ;
#184 = EDGE_LOOP ( 'NONE', ( #28, #116, #155, #147 ) ) ;
#185 = CLOSED_SHELL ( 'NONE', ( #196, #174, #276, #97, #177, #209, #191, #215, #9 ) ) ;
#186 = CARTESIAN_POINT ( 'NONE',  ( 0.000000000000000000, 0.000000000000000000, 7.199999999999984190 ) ) ;
#187 = PRODUCT_DEFINITION_FORMATION_WITH_SPECIFIED_SOURCE ( 'LIBOVOLNÝ', '', #190, .NOT_KNOWN. ) ;
#188 = DIRECTION ( 'NONE',  ( 1.000000000000000000, 0.000000000000000000, 0.000000000000000000 ) ) ;
#189 = FACE_OUTER_BOUND ( 'NONE', #228, .T. ) ;
#190 = PRODUCT ( 'cde5', 'cde5', '', ( #129 ) ) ;
#191 = ADVANCED_FACE ( 'NONE', ( #141 ), #11, .T. ) ;
#192 = DIRECTION ( 'NONE',  ( 0.000000000000000000, 0.000000000000000000, 1.000000000000000000 ) ) ;
#193 = EDGE_CURVE ( 'NONE', #83, #178, #47, .T. ) ;
#194 = DIRECTION ( 'NONE',  ( 0.000000000000000000, 0.000000000000000000, 1.000000000000000000 ) ) ;
#195 =( LENGTH_UNIT ( ) NAMED_UNIT ( * ) SI_UNIT ( .MILLI., .METRE. ) );
#196 = ADVANCED_FACE ( 'NONE', ( #300 ), #84, .F. ) ;
#197 = SECURITY_CLASSIFICATION_LEVEL ( 'unclassified' ) ;
#198 = AXIS2_PLACEMENT_3D ( 'NONE', #249, #157, #134 ) ;
#199 = PERSON_AND_ORGANIZATION ( #22, #137 ) ;
#200 = AXIS2_PLACEMENT_3D ( 'NONE', #237, #16, #167 ) ;
#201 = APPROVAL_ROLE ( '' ) ;
#202 = DIRECTION ( 'NONE',  ( 1.000000000000000000, 0.000000000000000000, 0.000000000000000000 ) ) ;
#203 = PERSON_AND_ORGANIZATION_ROLE ( 'classification_officer' ) ;
#204 = DIRECTION ( 'NONE',  ( 0.000000000000000000, 0.000000000000000000, 1.000000000000000000 ) ) ;
#205 = CC_DESIGN_APPROVAL ( #274, ( #81 ) ) ;
#206 = DATE_AND_TIME ( #154, #168 ) ;
#207 = CARTESIAN_POINT ( 'NONE',  ( 0.000000000000000000, 0.000000000000000000, 7.199999999999984190 ) ) ;
#208 = ORIENTED_EDGE ( 'NONE', *, *, #238, .T. ) ;
#209 = ADVANCED_FACE ( 'NONE', ( #123 ), #159, .F. ) ;
#210 = DIRECTION ( 'NONE',  ( 1.000000000000000000, 0.000000000000000000, 0.000000000000000000 ) ) ;
#211 = CARTESIAN_POINT ( 'NONE',  ( 0.000000000000000000, 0.000000000000000000, 0.000000000000000000 ) ) ;
#212 = CYLINDRICAL_SURFACE ( 'NONE', #165, 12.00000000000000178 ) ;
#213 = CARTESIAN_POINT ( 'NONE',  ( 0.000000000000000000, 0.000000000000000000, 0.000000000000000000 ) ) ;
#214 = AXIS2_PLACEMENT_3D ( 'NONE', #48, #51, #104 ) ;
#215 = ADVANCED_FACE ( 'NONE', ( #189 ), #121, .T. ) ;
#216 = DIRECTION ( 'NONE',  ( -0.000000000000000000, -0.000000000000000000, -1.000000000000000000 ) ) ;
#217 = EDGE_LOOP ( 'NONE', ( #291, #287, #98, #115 ) ) ;
#218 = CARTESIAN_POINT ( 'NONE',  ( 0.000000000000000000, 0.000000000000000000, 7.000000000000000000 ) ) ;
#219 = FACE_OUTER_BOUND ( 'NONE', #268, .T. ) ;
#220 = AXIS2_PLACEMENT_3D ( 'NONE', #211, #204, #210 ) ;
#221 = APPLICATION_PROTOCOL_DEFINITION ( 'international standard', 'config_control_design', 1994, #63 ) ;
#222 = ORIENTED_EDGE ( 'NONE', *, *, #238, .F. ) ;
#223 = DIRECTION ( 'NONE',  ( 1.000000000000000000, 0.000000000000000000, 0.000000000000000000 ) ) ;
#224 = CC_DESIGN_PERSON_AND_ORGANIZATION_ASSIGNMENT ( #144, #173, ( #81 ) ) ;
#225 = DATE_AND_TIME ( #24, #70 ) ;
#226 = DIRECTION ( 'NONE',  ( 0.000000000000000000, 0.000000000000000000, 1.000000000000000000 ) ) ;
#227 = CIRCLE ( 'NONE', #14, 12.00000000000000178 ) ;
#228 = EDGE_LOOP ( 'NONE', ( #272, #264 ) ) ;
#229 = ADVANCED_BREP_SHAPE_REPRESENTATION ( 'cde5', ( #33, #23 ), #42 ) ;
#230 = VERTEX_POINT ( 'NONE', #260 ) ;
#231 = CARTESIAN_POINT ( 'NONE',  ( 12.00000000000000178, 1.469576158976824144E-15, 7.000000000000000000 ) ) ;
#232 = LINE ( 'NONE', #163, #299 ) ;
#233 = EDGE_CURVE ( 'NONE', #275, #256, #227, .T. ) ;
#234 = CYLINDRICAL_SURFACE ( 'NONE', #20, 9.000000000000000000 ) ;
#235 = DIRECTION ( 'NONE',  ( -1.000000000000000000, 0.000000000000000000, 0.000000000000000000 ) ) ;
#236 = AXIS2_PLACEMENT_3D ( 'NONE', #127, #146, #202 ) ;
#237 = CARTESIAN_POINT ( 'NONE',  ( 0.000000000000000000, 0.000000000000000000, 7.000000000000000000 ) ) ;
#238 = EDGE_CURVE ( 'NONE', #256, #275, #58, .T. ) ;
#239 = CARTESIAN_POINT ( 'NONE',  ( 9.000000000000000000, 1.102182119232617714E-15, 1006.999999999999886 ) ) ;
#240 = PERSON_AND_ORGANIZATION ( #22, #137 ) ;
#241 = CIRCLE ( 'NONE', #220, 12.00000000000000178 ) ;
#242 =( NAMED_UNIT ( * ) PLANE_ANGLE_UNIT ( ) SI_UNIT ( $, .RADIAN. ) );
#243 = APPROVAL_PERSON_ORGANIZATION ( #285, #117, #307 ) ;
#244 = ORIENTED_EDGE ( 'NONE', *, *, #193, .F. ) ;
#245 = EDGE_CURVE ( 'NONE', #256, #7, #232, .T. ) ;
#246 = APPLICATION_PROTOCOL_DEFINITION ( 'international standard', 'config_control_design', 1994, #270 ) ;
#247 = PRODUCT_RELATED_PRODUCT_CATEGORY ( 'detail', '', ( #190 ) ) ;
#248 = CARTESIAN_POINT ( 'NONE',  ( 12.00000000000000178, 1.469576158976824144E-15, 7.000000000000000000 ) ) ;
#249 = CARTESIAN_POINT ( 'NONE',  ( 0.000000000000000000, 0.000000000000000000, 7.199999999999984190 ) ) ;
#250 = ORIENTED_EDGE ( 'NONE', *, *, #40, .T. ) ;
#251 = EDGE_CURVE ( 'NONE', #230, #4, #43, .T. ) ;
#252 = CALENDAR_DATE ( 2022, 20, 6 ) ;
#253 = CARTESIAN_POINT ( 'NONE',  ( 9.000000000000000000, 1.102182119232617714E-15, 1006.999999999999886 ) ) ;
#254 = CIRCLE ( 'NONE', #236, 9.199999999999999289 ) ;
#255 = APPROVAL_PERSON_ORGANIZATION ( #59, #294, #151 ) ;
#256 = VERTEX_POINT ( 'NONE', #8 ) ;
#257 = ORIENTED_EDGE ( 'NONE', *, *, #57, .T. ) ;
#258 = DIRECTION ( 'NONE',  ( -0.000000000000000000, -0.000000000000000000, -1.000000000000000000 ) ) ;
#259 = CARTESIAN_POINT ( 'NONE',  ( 0.000000000000000000, 0.000000000000000000, 7.000000000000000000 ) ) ;
#260 = CARTESIAN_POINT ( 'NONE',  ( -9.000000000000000000, 0.000000000000000000, 1006.999999999999886 ) ) ;
#261 = DIRECTION ( 'NONE',  ( -0.000000000000000000, -0.000000000000000000, -1.000000000000000000 ) ) ;
#262 = DATE_TIME_ROLE ( 'creation_date' ) ;
#263 = PERSON_AND_ORGANIZATION ( #22, #137 ) ;
#264 = ORIENTED_EDGE ( 'NONE', *, *, #281, .T. ) ;
#265 = DIRECTION ( 'NONE',  ( -0.000000000000000000, -0.000000000000000000, -1.000000000000000000 ) ) ;
#266 = CALENDAR_DATE ( 2022, 20, 6 ) ;
#267 =( NAMED_UNIT ( * ) SI_UNIT ( $, .STERADIAN. ) SOLID_ANGLE_UNIT ( ) );
#268 = EDGE_LOOP ( 'NONE', ( #54, #257, #250, #119 ) ) ;
#269 = AXIS2_PLACEMENT_3D ( 'NONE', #186, #125, #278 ) ;
#270 = APPLICATION_CONTEXT ( 'configuration controlled 3d designs of mechanical parts and assemblies' ) ;
#271 = ORIENTED_EDGE ( 'NONE', *, *, #292, .T. ) ;
#272 = ORIENTED_EDGE ( 'NONE', *, *, #76, .T. ) ;
#273 = CARTESIAN_POINT ( 'NONE',  ( -12.00000000000000178, 0.000000000000000000, 0.000000000000000000 ) ) ;
#274 = APPROVAL ( #303, 'NEURÈENÝ' ) ;
#275 = VERTEX_POINT ( 'NONE', #248 ) ;
#276 = ADVANCED_FACE ( 'NONE', ( #103 ), #50, .T. ) ;
#277 = LINE ( 'NONE', #253, #67 ) ;
#278 = DIRECTION ( 'NONE',  ( 1.000000000000000000, 0.000000000000000000, 0.000000000000000000 ) ) ;
#279 = LOCAL_TIME ( 11, 20, 59.00000000000000000, #108 ) ;
#280 = CARTESIAN_POINT ( 'NONE',  ( 0.000000000000000000, 0.000000000000000000, 1006.999999999999886 ) ) ;
#281 = EDGE_CURVE ( 'NONE', #183, #230, #306, .T. ) ;
#282 = DIRECTION ( 'NONE',  ( -1.000000000000000000, 1.224646799147353207E-16, 0.000000000000000000 ) ) ;
#283 = CARTESIAN_POINT ( 'NONE',  ( 9.000000000000000000, 1.102182119232617714E-15, 7.199999999999984190 ) ) ;
#284 = CARTESIAN_POINT ( 'NONE',  ( -9.000000000000000000, 0.000000000000000000, 1006.999999999999886 ) ) ;
#285 = PERSON_AND_ORGANIZATION ( #22, #137 ) ;
#286 = DATE_AND_TIME ( #266, #60 ) ;
#287 = ORIENTED_EDGE ( 'NONE', *, *, #10, .T. ) ;
#288 = DIRECTION ( 'NONE',  ( 1.000000000000000000, 0.000000000000000000, 0.000000000000000000 ) ) ;
#289 = ORIENTED_EDGE ( 'NONE', *, *, #62, .F. ) ;
#290 = APPROVAL_STATUS ( 'not_yet_approved' ) ;
#291 = ORIENTED_EDGE ( 'NONE', *, *, #233, .F. ) ;
#292 = EDGE_CURVE ( 'NONE', #114, #178, #254, .T. ) ;
#293 = AXIS2_PLACEMENT_3D ( 'NONE', #6, #226, #2 ) ;
#294 = APPROVAL ( #290, 'NEURÈENÝ' ) ;
#295 = EDGE_LOOP ( 'NONE', ( #208, #179 ) ) ;
#296 = DIRECTION ( 'NONE',  ( 1.000000000000000000, 0.000000000000000000, 0.000000000000000000 ) ) ;
#297 = DIRECTION ( 'NONE',  ( 1.000000000000000000, 0.000000000000000000, -0.000000000000000000 ) ) ;
#298 = DIRECTION ( 'NONE',  ( 1.000000000000000000, 0.000000000000000000, -0.000000000000000000 ) ) ;
#299 = VECTOR ( 'NONE', #261, 1000.000000000000000 ) ;
#300 = FACE_OUTER_BOUND ( 'NONE', #92, .T. ) ;
#301 = DIRECTION ( 'NONE',  ( -1.000000000000000000, 0.000000000000000000, 0.000000000000000000 ) ) ;
#302 = DIRECTION ( 'NONE',  ( 0.000000000000000000, 0.000000000000000000, 1.000000000000000000 ) ) ;
#303 = APPROVAL_STATUS ( 'not_yet_approved' ) ;
#304 = CC_DESIGN_PERSON_AND_ORGANIZATION_ASSIGNMENT ( #34, #203, ( #148 ) ) ;
#305 = CIRCLE ( 'NONE', #45, 0.2000000000000005107 ) ;
#306 = CIRCLE ( 'NONE', #214, 9.000000000000000000 ) ;
#307 = APPROVAL_ROLE ( '' ) ;
ENDSEC;
END-ISO-10303-21;
