ISO-10303-21;
HEADER;
FILE_DESCRIPTION (( 'STEP AP203' ),
    '1' );
FILE_NAME ('97b9.STEP',
    '2022-06-20T09:21:33',
    ( '' ),
    ( '' ),
    'SwSTEP 2.0',
    'SolidWorks 2019',
    '' );
FILE_SCHEMA (( 'CONFIG_CONTROL_DESIGN' ));
ENDSEC;

DATA;
#1 = ADVANCED_FACE ( 'NONE', ( #128 ), #216, .F. ) ;
#2 = EDGE_CURVE ( 'NONE', #274, #147, #242, .T. ) ;
#3 = APPROVAL_DATE_TIME ( #55, #113 ) ;
#4 = SECURITY_CLASSIFICATION_LEVEL ( 'unclassified' ) ;
#5 = PERSON_AND_ORGANIZATION_ROLE ( 'classification_officer' ) ;
#6 = CARTESIAN_POINT ( 'NONE',  ( 9.000000000000000000, 1.102182119232617714E-15, 407.0000000000000000 ) ) ;
#7 = AXIS2_PLACEMENT_3D ( 'NONE', #37, #295, #10 ) ;
#8 = CC_DESIGN_APPROVAL ( #71, ( #94 ) ) ;
#9 = DIRECTION ( 'NONE',  ( -0.000000000000000000, -0.000000000000000000, -1.000000000000000000 ) ) ;
#10 = DIRECTION ( 'NONE',  ( 1.000000000000000000, 0.000000000000000000, 0.000000000000000000 ) ) ;
#11 = CALENDAR_DATE ( 2022, 20, 6 ) ;
#12 = DIRECTION ( 'NONE',  ( -0.000000000000000000, -0.000000000000000000, -1.000000000000000000 ) ) ;
#13 = CIRCLE ( 'NONE', #115, 9.000000000000000000 ) ;
#14 = CARTESIAN_POINT ( 'NONE',  ( 0.000000000000000000, 0.000000000000000000, 7.000000000000000000 ) ) ;
#15 = LOCAL_TIME ( 11, 21, 33.00000000000000000, #176 ) ;
#16 = CARTESIAN_POINT ( 'NONE',  ( 9.199999999999999289, 0.000000000000000000, 7.199999999999984190 ) ) ;
#17 = ADVANCED_FACE ( 'NONE', ( #227 ), #272, .T. ) ;
#18 = CC_DESIGN_PERSON_AND_ORGANIZATION_ASSIGNMENT ( #306, #146, ( #174 ) ) ;
#19 = ORIENTED_EDGE ( 'NONE', *, *, #76, .F. ) ;
#20 = FACE_OUTER_BOUND ( 'NONE', #25, .T. ) ;
#21 = APPROVAL_STATUS ( 'not_yet_approved' ) ;
#22 = EDGE_LOOP ( 'NONE', ( #19, #250 ) ) ;
#23 = CARTESIAN_POINT ( 'NONE',  ( -9.000000000000000000, 0.000000000000000000, 407.0000000000000000 ) ) ;
#24 = ORIENTED_EDGE ( 'NONE', *, *, #114, .T. ) ;
#25 = EDGE_LOOP ( 'NONE', ( #80, #231 ) ) ;
#26 = CARTESIAN_POINT ( 'NONE',  ( 0.000000000000000000, 0.000000000000000000, 7.199999999999984190 ) ) ;
#27 = AXIS2_PLACEMENT_3D ( 'NONE', #110, #136, #185 ) ;
#28 = ADVANCED_FACE ( 'NONE', ( #223 ), #297, .T. ) ;
#29 = CC_DESIGN_PERSON_AND_ORGANIZATION_ASSIGNMENT ( #217, #32, ( #94 ) ) ;
#30 = APPROVAL_DATE_TIME ( #127, #71 ) ;
#31 = APPROVAL_DATE_TIME ( #262, #177 ) ;
#32 = PERSON_AND_ORGANIZATION_ROLE ( 'design_supplier' ) ;
#33 = ORIENTED_EDGE ( 'NONE', *, *, #52, .T. ) ;
#34 = AXIS2_PLACEMENT_3D ( 'NONE', #85, #162, #86 ) ;
#35 = FACE_OUTER_BOUND ( 'NONE', #92, .T. ) ;
#36 = MANIFOLD_SOLID_BREP ( 'Zaoblit1', #124 ) ;
#37 = CARTESIAN_POINT ( 'NONE',  ( 0.000000000000000000, 0.000000000000000000, 407.0000000000000000 ) ) ;
#38 = CARTESIAN_POINT ( 'NONE',  ( -9.000000000000000000, 0.000000000000000000, 407.0000000000000000 ) ) ;
#39 = CC_DESIGN_APPROVAL ( #113, ( #267 ) ) ;
#40 = CARTESIAN_POINT ( 'NONE',  ( 12.00000000000000178, 1.469576158976824144E-15, 0.000000000000000000 ) ) ;
#41 = CYLINDRICAL_SURFACE ( 'NONE', #205, 12.00000000000000178 ) ;
#42 = PERSON_AND_ORGANIZATION ( #307, #226 ) ;
#43 = VERTEX_POINT ( 'NONE', #40 ) ;
#44 = PLANE ( 'NONE',  #225 ) ;
#45 = CIRCLE ( 'NONE', #199, 12.00000000000000178 ) ;
#46 = ORIENTED_EDGE ( 'NONE', *, *, #75, .T. ) ;
#47 = CC_DESIGN_PERSON_AND_ORGANIZATION_ASSIGNMENT ( #241, #263, ( #267 ) ) ;
#48 = CARTESIAN_POINT ( 'NONE',  ( 0.000000000000000000, 0.000000000000000000, 0.000000000000000000 ) ) ;
#49 = ORIENTED_EDGE ( 'NONE', *, *, #2, .T. ) ;
#50 = DIRECTION ( 'NONE',  ( 0.000000000000000000, 0.000000000000000000, 1.000000000000000000 ) ) ;
#51 = ADVANCED_FACE ( 'NONE', ( #68, #168 ), #180, .T. ) ;
#52 = EDGE_CURVE ( 'NONE', #178, #213, #150, .T. ) ;
#53 = CIRCLE ( 'NONE', #219, 0.1999999999999996503 ) ;
#54 = APPROVAL_ROLE ( '' ) ;
#55 = DATE_AND_TIME ( #193, #15 ) ;
#56 = COORDINATED_UNIVERSAL_TIME_OFFSET ( 1, 0, .AHEAD. ) ;
#57 = EDGE_LOOP ( 'NONE', ( #265, #117, #24, #73 ) ) ;
#58 = CIRCLE ( 'NONE', #7, 9.000000000000000000 ) ;
#59 = CARTESIAN_POINT ( 'NONE',  ( 0.000000000000000000, 0.000000000000000000, 7.199999999999984190 ) ) ;
#60 = EDGE_CURVE ( 'NONE', #118, #140, #183, .T. ) ;
#61 = CARTESIAN_POINT ( 'NONE',  ( -12.00000000000000178, 0.000000000000000000, 7.000000000000000000 ) ) ;
#62 = VECTOR ( 'NONE', #64, 1000.000000000000000 ) ;
#63 = DIRECTION ( 'NONE',  ( -1.000000000000000000, 0.000000000000000000, 0.000000000000000000 ) ) ;
#64 = DIRECTION ( 'NONE',  ( -0.000000000000000000, -0.000000000000000000, -1.000000000000000000 ) ) ;
#65 = DIRECTION ( 'NONE',  ( 0.000000000000000000, 0.000000000000000000, 1.000000000000000000 ) ) ;
#66 = ORIENTED_EDGE ( 'NONE', *, *, #60, .T. ) ;
#67 = AXIS2_PLACEMENT_3D ( 'NONE', #220, #105, #82 ) ;
#68 = FACE_BOUND ( 'NONE', #164, .T. ) ;
#69 = EDGE_LOOP ( 'NONE', ( #283, #88, #281, #171 ) ) ;
#70 = CARTESIAN_POINT ( 'NONE',  ( 0.000000000000000000, 0.000000000000000000, 407.0000000000000000 ) ) ;
#71 = APPROVAL ( #152, 'NEURÈENÝ' ) ;
#72 = DIRECTION ( 'NONE',  ( 0.000000000000000000, 0.000000000000000000, 1.000000000000000000 ) ) ;
#73 = ORIENTED_EDGE ( 'NONE', *, *, #182, .F. ) ;
#74 = CARTESIAN_POINT ( 'NONE',  ( 0.000000000000000000, 0.000000000000000000, 407.0000000000000000 ) ) ;
#75 = EDGE_CURVE ( 'NONE', #140, #118, #45, .T. ) ;
#76 = EDGE_CURVE ( 'NONE', #90, #43, #285, .T. ) ;
#77 = CARTESIAN_POINT ( 'NONE',  ( -9.199999999999999289, 1.126675055215564822E-15, 6.999999999999992006 ) ) ;
#78 = AXIS2_PLACEMENT_3D ( 'NONE', #26, #50, #260 ) ;
#79 = CALENDAR_DATE ( 2022, 20, 6 ) ;
#80 = ORIENTED_EDGE ( 'NONE', *, *, #300, .T. ) ;
#81 = APPROVAL_PERSON_ORGANIZATION ( #229, #177, #54 ) ;
#82 = DIRECTION ( 'NONE',  ( 1.000000000000000000, 0.000000000000000000, 0.000000000000000000 ) ) ;
#83 = CARTESIAN_POINT ( 'NONE',  ( 0.000000000000000000, 0.000000000000000000, 7.000000000000000000 ) ) ;
#84 = TOROIDAL_SURFACE ( 'NONE', #34, 9.199999999999999289, 0.2000000000000000111 ) ;
#85 = CARTESIAN_POINT ( 'NONE',  ( 0.000000000000000000, 0.000000000000000000, 7.199999999999984190 ) ) ;
#86 = DIRECTION ( 'NONE',  ( 1.000000000000000000, 0.000000000000000000, 0.000000000000000000 ) ) ;
#87 = DIRECTION ( 'NONE',  ( 0.000000000000000000, -1.000000000000000000, 0.000000000000000000 ) ) ;
#88 = ORIENTED_EDGE ( 'NONE', *, *, #300, .F. ) ;
#89 = VECTOR ( 'NONE', #181, 1000.000000000000000 ) ;
#90 = VERTEX_POINT ( 'NONE', #204 ) ;
#91 = DIRECTION ( 'NONE',  ( 0.000000000000000000, 0.000000000000000000, 1.000000000000000000 ) ) ;
#92 = EDGE_LOOP ( 'NONE', ( #191, #186, #166, #137 ) ) ;
#93 = APPROVAL_ROLE ( '' ) ;
#94 = PRODUCT_DEFINITION_FORMATION_WITH_SPECIFIED_SOURCE ( 'LIBOVOLNÝ', '', #174, .NOT_KNOWN. ) ;
#95 = EDGE_CURVE ( 'NONE', #253, #239, #249, .T. ) ;
#96 = DIRECTION ( 'NONE',  ( 0.000000000000000000, 0.000000000000000000, 1.000000000000000000 ) ) ;
#97 = APPROVAL_ROLE ( '' ) ;
#98 = EDGE_LOOP ( 'NONE', ( #111, #244, #188, #208 ) ) ;
#99 = AXIS2_PLACEMENT_3D ( 'NONE', #14, #269, #293 ) ;
#100 = LOCAL_TIME ( 11, 21, 33.00000000000000000, #56 ) ;
#101 = UNCERTAINTY_MEASURE_WITH_UNIT (LENGTH_MEASURE( 1.000000000000000082E-05 ), #170, 'distance_accuracy_value', 'NONE');
#102 = EDGE_CURVE ( 'NONE', #274, #253, #58, .T. ) ;
#103 = AXIS2_PLACEMENT_3D ( 'NONE', #222, #270, #248 ) ;
#104 = ADVANCED_FACE ( 'NONE', ( #224 ), #41, .T. ) ;
#105 = DIRECTION ( 'NONE',  ( 0.000000000000000000, 0.000000000000000000, 1.000000000000000000 ) ) ;
#106 = CARTESIAN_POINT ( 'NONE',  ( 12.00000000000000178, 1.469576158976824144E-15, 7.000000000000000000 ) ) ;
#107 = CARTESIAN_POINT ( 'NONE',  ( 9.000000000000000000, 1.102182119232617714E-15, 7.199999999999984190 ) ) ;
#108 = AXIS2_PLACEMENT_3D ( 'NONE', #201, #12, #63 ) ;
#109 = DIRECTION ( 'NONE',  ( -1.000000000000000000, 0.000000000000000000, 0.000000000000000000 ) ) ;
#110 = CARTESIAN_POINT ( 'NONE',  ( 0.000000000000000000, 0.000000000000000000, 7.000000000000000000 ) ) ;
#111 = ORIENTED_EDGE ( 'NONE', *, *, #75, .F. ) ;
#112 = CARTESIAN_POINT ( 'NONE',  ( 0.000000000000000000, 0.000000000000000000, 7.000000000000000000 ) ) ;
#113 = APPROVAL ( #21, 'NEURÈENÝ' ) ;
#114 = EDGE_CURVE ( 'NONE', #147, #178, #53, .T. ) ;
#115 = AXIS2_PLACEMENT_3D ( 'NONE', #175, #96, #284 ) ;
#116 = DIRECTION ( 'NONE',  ( 0.000000000000000000, 0.000000000000000000, 1.000000000000000000 ) ) ;
#117 = ORIENTED_EDGE ( 'NONE', *, *, #266, .F. ) ;
#118 = VERTEX_POINT ( 'NONE', #61 ) ;
#119 = DIRECTION ( 'NONE',  ( -0.000000000000000000, -0.000000000000000000, -1.000000000000000000 ) ) ;
#120 = DIRECTION ( 'NONE',  ( 1.000000000000000000, 0.000000000000000000, -0.000000000000000000 ) ) ;
#121 = CALENDAR_DATE ( 2022, 20, 6 ) ;
#122 = DATE_TIME_ROLE ( 'creation_date' ) ;
#123 = EDGE_CURVE ( 'NONE', #140, #43, #133, .T. ) ;
#124 = CLOSED_SHELL ( 'NONE', ( #167, #17, #236, #104, #51, #139, #28, #298, #1 ) ) ;
#125 = LOCAL_TIME ( 11, 21, 33.00000000000000000, #215 ) ;
#126 = PERSON_AND_ORGANIZATION ( #307, #226 ) ;
#127 = DATE_AND_TIME ( #121, #151 ) ;
#128 = FACE_OUTER_BOUND ( 'NONE', #57, .T. ) ;
#129 = DIRECTION ( 'NONE',  ( 1.000000000000000000, 0.000000000000000000, 0.000000000000000000 ) ) ;
#130 = AXIS2_PLACEMENT_3D ( 'NONE', #277, #292, #165 ) ;
#131 = CC_DESIGN_SECURITY_CLASSIFICATION ( #214, ( #94 ) ) ;
#132 = CARTESIAN_POINT ( 'NONE',  ( 9.199999999999999289, 0.000000000000000000, 6.999999999999992006 ) ) ;
#133 = LINE ( 'NONE', #106, #89 ) ;
#134 = LINE ( 'NONE', #247, #301 ) ;
#135 = CC_DESIGN_APPROVAL ( #177, ( #214 ) ) ;
#136 = DIRECTION ( 'NONE',  ( -0.000000000000000000, -0.000000000000000000, -1.000000000000000000 ) ) ;
#137 = ORIENTED_EDGE ( 'NONE', *, *, #114, .F. ) ;
#138 = DIRECTION ( 'NONE',  ( -1.000000000000000000, 1.224646799147353207E-16, 0.000000000000000000 ) ) ;
#139 = ADVANCED_FACE ( 'NONE', ( #206 ), #160, .F. ) ;
#140 = VERTEX_POINT ( 'NONE', #157 ) ;
#141 = DIRECTION ( 'NONE',  ( 1.000000000000000000, 0.000000000000000000, 0.000000000000000000 ) ) ;
#142 = APPLICATION_CONTEXT ( 'configuration controlled 3d designs of mechanical parts and assemblies' ) ;
#143 = ORIENTED_EDGE ( 'NONE', *, *, #95, .F. ) ;
#144 = CIRCLE ( 'NONE', #78, 9.000000000000000000 ) ;
#145 = APPROVAL_PERSON_ORGANIZATION ( #42, #113, #93 ) ;
#146 = PERSON_AND_ORGANIZATION_ROLE ( 'design_owner' ) ;
#147 = VERTEX_POINT ( 'NONE', #107 ) ;
#148 = CARTESIAN_POINT ( 'NONE',  ( 0.000000000000000000, 0.000000000000000000, 0.000000000000000000 ) ) ;
#149 = PERSON_AND_ORGANIZATION ( #307, #226 ) ;
#150 = CIRCLE ( 'NONE', #27, 9.199999999999999289 ) ;
#151 = LOCAL_TIME ( 11, 21, 33.00000000000000000, #261 ) ;
#152 = APPROVAL_STATUS ( 'not_yet_approved' ) ;
#153 = PERSON_AND_ORGANIZATION_ROLE ( 'creator' ) ;
#154 = AXIS2_PLACEMENT_3D ( 'NONE', #112, #234, #282 ) ;
#155 = AXIS2_PLACEMENT_3D ( 'NONE', #74, #72, #259 ) ;
#156 = DATE_AND_TIME ( #79, #100 ) ;
#157 = CARTESIAN_POINT ( 'NONE',  ( 12.00000000000000178, 1.469576158976824144E-15, 7.000000000000000000 ) ) ;
#158 = CIRCLE ( 'NONE', #294, 0.2000000000000005107 ) ;
#159 = DATE_TIME_ROLE ( 'classification_date' ) ;
#160 = PLANE ( 'NONE',  #130 ) ;
#161 = EDGE_CURVE ( 'NONE', #118, #90, #134, .T. ) ;
#162 = DIRECTION ( 'NONE',  ( 0.000000000000000000, 0.000000000000000000, 1.000000000000000000 ) ) ;
#163 = ADVANCED_BREP_SHAPE_REPRESENTATION ( '97b9', ( #36, #278 ), #271 ) ;
#164 = EDGE_LOOP ( 'NONE', ( #33, #169 ) ) ;
#165 = DIRECTION ( 'NONE',  ( 1.000000000000000000, 0.000000000000000000, -0.000000000000000000 ) ) ;
#166 = ORIENTED_EDGE ( 'NONE', *, *, #52, .F. ) ;
#167 = ADVANCED_FACE ( 'NONE', ( #35 ), #84, .F. ) ;
#168 = FACE_OUTER_BOUND ( 'NONE', #279, .T. ) ;
#169 = ORIENTED_EDGE ( 'NONE', *, *, #182, .T. ) ;
#170 =( LENGTH_UNIT ( ) NAMED_UNIT ( * ) SI_UNIT ( .MILLI., .METRE. ) );
#171 = ORIENTED_EDGE ( 'NONE', *, *, #221, .T. ) ;
#172 = VECTOR ( 'NONE', #305, 1000.000000000000000 ) ;
#173 = CARTESIAN_POINT ( 'NONE',  ( 0.000000000000000000, 0.000000000000000000, 7.000000000000000000 ) ) ;
#174 = PRODUCT ( '97b9', '97b9', '', ( #256 ) ) ;
#175 = CARTESIAN_POINT ( 'NONE',  ( 0.000000000000000000, 0.000000000000000000, 7.199999999999984190 ) ) ;
#176 = COORDINATED_UNIVERSAL_TIME_OFFSET ( 1, 0, .AHEAD. ) ;
#177 = APPROVAL ( #194, 'NEURÈENÝ' ) ;
#178 = VERTEX_POINT ( 'NONE', #132 ) ;
#179 = CALENDAR_DATE ( 2022, 20, 6 ) ;
#180 = PLANE ( 'NONE',  #238 ) ;
#181 = DIRECTION ( 'NONE',  ( -0.000000000000000000, -0.000000000000000000, -1.000000000000000000 ) ) ;
#182 = EDGE_CURVE ( 'NONE', #213, #178, #232, .T. ) ;
#183 = CIRCLE ( 'NONE', #99, 12.00000000000000178 ) ;
#184 = CARTESIAN_POINT ( 'NONE',  ( 0.000000000000000000, 0.000000000000000000, 7.000000000000000000 ) ) ;
#185 = DIRECTION ( 'NONE',  ( 1.000000000000000000, 0.000000000000000000, 0.000000000000000000 ) ) ;
#186 = ORIENTED_EDGE ( 'NONE', *, *, #288, .T. ) ;
#187 = DIRECTION ( 'NONE',  ( 0.000000000000000000, 0.000000000000000000, -1.000000000000000000 ) ) ;
#188 = ORIENTED_EDGE ( 'NONE', *, *, #233, .T. ) ;
#189 = DIRECTION ( 'NONE',  ( 1.000000000000000000, 0.000000000000000000, 0.000000000000000000 ) ) ;
#190 = DIRECTION ( 'NONE',  ( 0.000000000000000000, 0.000000000000000000, 1.000000000000000000 ) ) ;
#191 = ORIENTED_EDGE ( 'NONE', *, *, #221, .F. ) ;
#192 = CYLINDRICAL_SURFACE ( 'NONE', #154, 12.00000000000000178 ) ;
#193 = CALENDAR_DATE ( 2022, 20, 6 ) ;
#194 = APPROVAL_STATUS ( 'not_yet_approved' ) ;
#195 = DIRECTION ( 'NONE',  ( 1.224646799147353207E-16, 1.000000000000000000, -0.000000000000000000 ) ) ;
#196 = PRODUCT_RELATED_PRODUCT_CATEGORY ( 'detail', '', ( #174 ) ) ;
#197 = CC_DESIGN_PERSON_AND_ORGANIZATION_ASSIGNMENT ( #198, #5, ( #214 ) ) ;
#198 = PERSON_AND_ORGANIZATION ( #307, #226 ) ;
#199 = AXIS2_PLACEMENT_3D ( 'NONE', #184, #65, #203 ) ;
#200 = CIRCLE ( 'NONE', #155, 9.000000000000000000 ) ;
#201 = CARTESIAN_POINT ( 'NONE',  ( 0.000000000000000000, 0.000000000000000000, 407.0000000000000000 ) ) ;
#202 = DATE_AND_TIME ( #11, #125 ) ;
#203 = DIRECTION ( 'NONE',  ( 1.000000000000000000, 0.000000000000000000, 0.000000000000000000 ) ) ;
#204 = CARTESIAN_POINT ( 'NONE',  ( -12.00000000000000178, 0.000000000000000000, 0.000000000000000000 ) ) ;
#205 = AXIS2_PLACEMENT_3D ( 'NONE', #207, #9, #109 ) ;
#206 = FACE_OUTER_BOUND ( 'NONE', #22, .T. ) ;
#207 = CARTESIAN_POINT ( 'NONE',  ( 0.000000000000000000, 0.000000000000000000, 7.000000000000000000 ) ) ;
#208 = ORIENTED_EDGE ( 'NONE', *, *, #161, .F. ) ;
#209 = AXIS2_PLACEMENT_3D ( 'NONE', #173, #119, #141 ) ;
#210 = ORIENTED_EDGE ( 'NONE', *, *, #123, .F. ) ;
#211 =( NAMED_UNIT ( * ) PLANE_ANGLE_UNIT ( ) SI_UNIT ( $, .RADIAN. ) );
#212 = CARTESIAN_POINT ( 'NONE',  ( -9.000000000000000000, 0.000000000000000000, 7.199999999999984190 ) ) ;
#213 = VERTEX_POINT ( 'NONE', #77 ) ;
#214 = SECURITY_CLASSIFICATION ( '', '', #4 ) ;
#215 = COORDINATED_UNIVERSAL_TIME_OFFSET ( 1, 0, .AHEAD. ) ;
#216 = TOROIDAL_SURFACE ( 'NONE', #237, 9.199999999999999289, 0.2000000000000000111 ) ;
#217 = PERSON_AND_ORGANIZATION ( #307, #226 ) ;
#218 = DIRECTION ( 'NONE',  ( 0.000000000000000000, 0.000000000000000000, 1.000000000000000000 ) ) ;
#219 = AXIS2_PLACEMENT_3D ( 'NONE', #16, #87, #187 ) ;
#220 = CARTESIAN_POINT ( 'NONE',  ( 0.000000000000000000, 0.000000000000000000, 0.000000000000000000 ) ) ;
#221 = EDGE_CURVE ( 'NONE', #239, #147, #144, .T. ) ;
#222 = CARTESIAN_POINT ( 'NONE',  ( 0.000000000000000000, 0.000000000000000000, 407.0000000000000000 ) ) ;
#223 = FACE_OUTER_BOUND ( 'NONE', #69, .T. ) ;
#224 = FACE_OUTER_BOUND ( 'NONE', #299, .T. ) ;
#225 = AXIS2_PLACEMENT_3D ( 'NONE', #70, #116, #120 ) ;
#226 = ORGANIZATION ( 'NEURÈENÝ', 'NEURÈENÝ', '' ) ;
#227 = FACE_OUTER_BOUND ( 'NONE', #268, .T. ) ;
#228 = ORIENTED_EDGE ( 'NONE', *, *, #76, .T. ) ;
#229 = PERSON_AND_ORGANIZATION ( #307, #226 ) ;
#230 = DIRECTION ( 'NONE',  ( 1.000000000000000000, 0.000000000000000000, 0.000000000000000000 ) ) ;
#231 = ORIENTED_EDGE ( 'NONE', *, *, #102, .T. ) ;
#232 = CIRCLE ( 'NONE', #209, 9.199999999999999289 ) ;
#233 = EDGE_CURVE ( 'NONE', #43, #90, #257, .T. ) ;
#234 = DIRECTION ( 'NONE',  ( -0.000000000000000000, -0.000000000000000000, -1.000000000000000000 ) ) ;
#235 = FACE_OUTER_BOUND ( 'NONE', #98, .T. ) ;
#236 = ADVANCED_FACE ( 'NONE', ( #235 ), #192, .T. ) ;
#237 = AXIS2_PLACEMENT_3D ( 'NONE', #59, #218, #129 ) ;
#238 = AXIS2_PLACEMENT_3D ( 'NONE', #83, #275, #251 ) ;
#239 = VERTEX_POINT ( 'NONE', #212 ) ;
#240 = SHAPE_DEFINITION_REPRESENTATION ( #289, #163 ) ;
#241 = PERSON_AND_ORGANIZATION ( #307, #226 ) ;
#242 = LINE ( 'NONE', #6, #172 ) ;
#243 = CC_DESIGN_DATE_AND_TIME_ASSIGNMENT ( #156, #122, ( #267 ) ) ;
#244 = ORIENTED_EDGE ( 'NONE', *, *, #123, .T. ) ;
#245 = CC_DESIGN_PERSON_AND_ORGANIZATION_ASSIGNMENT ( #126, #153, ( #94 ) ) ;
#246 = AXIS2_PLACEMENT_3D ( 'NONE', #148, #91, #230 ) ;
#247 = CARTESIAN_POINT ( 'NONE',  ( -12.00000000000000178, 0.000000000000000000, 7.000000000000000000 ) ) ;
#248 = DIRECTION ( 'NONE',  ( -1.000000000000000000, 0.000000000000000000, 0.000000000000000000 ) ) ;
#249 = LINE ( 'NONE', #38, #62 ) ;
#250 = ORIENTED_EDGE ( 'NONE', *, *, #233, .F. ) ;
#251 = DIRECTION ( 'NONE',  ( 1.000000000000000000, 0.000000000000000000, -0.000000000000000000 ) ) ;
#252 = DESIGN_CONTEXT ( 'detailed design', #273, 'design' ) ;
#253 = VERTEX_POINT ( 'NONE', #23 ) ;
#254 = APPLICATION_PROTOCOL_DEFINITION ( 'international standard', 'config_control_design', 1994, #273 ) ;
#255 = CC_DESIGN_DATE_AND_TIME_ASSIGNMENT ( #202, #159, ( #214 ) ) ;
#256 = MECHANICAL_CONTEXT ( 'NONE', #142, 'mechanical' ) ;
#257 = CIRCLE ( 'NONE', #246, 12.00000000000000178 ) ;
#258 = ORIENTED_EDGE ( 'NONE', *, *, #161, .T. ) ;
#259 = DIRECTION ( 'NONE',  ( 1.000000000000000000, 0.000000000000000000, 0.000000000000000000 ) ) ;
#260 = DIRECTION ( 'NONE',  ( 1.000000000000000000, 0.000000000000000000, 0.000000000000000000 ) ) ;
#261 = COORDINATED_UNIVERSAL_TIME_OFFSET ( 1, 0, .AHEAD. ) ;
#262 = DATE_AND_TIME ( #179, #264 ) ;
#263 = PERSON_AND_ORGANIZATION_ROLE ( 'creator' ) ;
#264 = LOCAL_TIME ( 11, 21, 33.00000000000000000, #290 ) ;
#265 = ORIENTED_EDGE ( 'NONE', *, *, #288, .F. ) ;
#266 = EDGE_CURVE ( 'NONE', #147, #239, #13, .T. ) ;
#267 = PRODUCT_DEFINITION ( 'NEZNÁMÝ', '', #94, #252 ) ;
#268 = EDGE_LOOP ( 'NONE', ( #291, #49, #276, #143 ) ) ;
#269 = DIRECTION ( 'NONE',  ( 0.000000000000000000, 0.000000000000000000, 1.000000000000000000 ) ) ;
#270 = DIRECTION ( 'NONE',  ( -0.000000000000000000, -0.000000000000000000, -1.000000000000000000 ) ) ;
#271 =( GEOMETRIC_REPRESENTATION_CONTEXT ( 3 ) GLOBAL_UNCERTAINTY_ASSIGNED_CONTEXT ( ( #101 ) ) GLOBAL_UNIT_ASSIGNED_CONTEXT ( ( #170, #211, #287 ) ) REPRESENTATION_CONTEXT ( 'NONE', 'WORKASPACE' ) );
#272 = CYLINDRICAL_SURFACE ( 'NONE', #108, 9.000000000000000000 ) ;
#273 = APPLICATION_CONTEXT ( 'configuration controlled 3d designs of mechanical parts and assemblies' ) ;
#274 = VERTEX_POINT ( 'NONE', #303 ) ;
#275 = DIRECTION ( 'NONE',  ( 0.000000000000000000, 0.000000000000000000, 1.000000000000000000 ) ) ;
#276 = ORIENTED_EDGE ( 'NONE', *, *, #266, .T. ) ;
#277 = CARTESIAN_POINT ( 'NONE',  ( 0.000000000000000000, 0.000000000000000000, 0.000000000000000000 ) ) ;
#278 = AXIS2_PLACEMENT_3D ( 'NONE', #48, #190, #189 ) ;
#279 = EDGE_LOOP ( 'NONE', ( #66, #46 ) ) ;
#280 = APPLICATION_PROTOCOL_DEFINITION ( 'international standard', 'config_control_design', 1994, #142 ) ;
#281 = ORIENTED_EDGE ( 'NONE', *, *, #95, .T. ) ;
#282 = DIRECTION ( 'NONE',  ( -1.000000000000000000, 0.000000000000000000, 0.000000000000000000 ) ) ;
#283 = ORIENTED_EDGE ( 'NONE', *, *, #2, .F. ) ;
#284 = DIRECTION ( 'NONE',  ( 1.000000000000000000, 0.000000000000000000, 0.000000000000000000 ) ) ;
#285 = CIRCLE ( 'NONE', #67, 12.00000000000000178 ) ;
#286 = CARTESIAN_POINT ( 'NONE',  ( -9.199999999999999289, 1.126675055215564822E-15, 7.199999999999984190 ) ) ;
#287 =( NAMED_UNIT ( * ) SI_UNIT ( $, .STERADIAN. ) SOLID_ANGLE_UNIT ( ) );
#288 = EDGE_CURVE ( 'NONE', #239, #213, #158, .T. ) ;
#289 = PRODUCT_DEFINITION_SHAPE ( 'NONE', 'NONE',  #267 ) ;
#290 = COORDINATED_UNIVERSAL_TIME_OFFSET ( 1, 0, .AHEAD. ) ;
#291 = ORIENTED_EDGE ( 'NONE', *, *, #102, .F. ) ;
#292 = DIRECTION ( 'NONE',  ( 0.000000000000000000, 0.000000000000000000, 1.000000000000000000 ) ) ;
#293 = DIRECTION ( 'NONE',  ( 1.000000000000000000, 0.000000000000000000, 0.000000000000000000 ) ) ;
#294 = AXIS2_PLACEMENT_3D ( 'NONE', #286, #195, #138 ) ;
#295 = DIRECTION ( 'NONE',  ( 0.000000000000000000, 0.000000000000000000, 1.000000000000000000 ) ) ;
#296 = DIRECTION ( 'NONE',  ( -0.000000000000000000, -0.000000000000000000, -1.000000000000000000 ) ) ;
#297 = CYLINDRICAL_SURFACE ( 'NONE', #103, 9.000000000000000000 ) ;
#298 = ADVANCED_FACE ( 'NONE', ( #20 ), #44, .T. ) ;
#299 = EDGE_LOOP ( 'NONE', ( #210, #304, #258, #228 ) ) ;
#300 = EDGE_CURVE ( 'NONE', #253, #274, #200, .T. ) ;
#301 = VECTOR ( 'NONE', #296, 1000.000000000000000 ) ;
#302 = APPROVAL_PERSON_ORGANIZATION ( #149, #71, #97 ) ;
#303 = CARTESIAN_POINT ( 'NONE',  ( 9.000000000000000000, 1.102182119232617714E-15, 407.0000000000000000 ) ) ;
#304 = ORIENTED_EDGE ( 'NONE', *, *, #60, .F. ) ;
#305 = DIRECTION ( 'NONE',  ( -0.000000000000000000, -0.000000000000000000, -1.000000000000000000 ) ) ;
#306 = PERSON_AND_ORGANIZATION ( #307, #226 ) ;
#307 = PERSON ( 'NEURÈENÝ', 'NEURÈENÝ', 'NEURÈENÝ', ('NEURÈENÝ'), ('NEURÈENÝ'), ('NEURÈENÝ') ) ;
ENDSEC;
END-ISO-10303-21;
