ISO-10303-21;
HEADER;
FILE_DESCRIPTION (( 'STEP AP203' ),
    '1' );
FILE_NAME ('4af7.STEP',
    '2022-06-20T09:44:13',
    ( '' ),
    ( '' ),
    'SwSTEP 2.0',
    'SolidWorks 2019',
    '' );
FILE_SCHEMA (( 'CONFIG_CONTROL_DESIGN' ));
ENDSEC;

DATA;
#1 = DIRECTION ( 'NONE',  ( -1.000000000000000000, 0.000000000000000000, 0.000000000000000000 ) ) ;
#2 = CC_DESIGN_PERSON_AND_ORGANIZATION_ASSIGNMENT ( #32, #105, ( #297 ) ) ;
#3 = APPROVAL_ROLE ( '' ) ;
#4 = DIRECTION ( 'NONE',  ( -0.000000000000000000, -0.000000000000000000, -1.000000000000000000 ) ) ;
#5 = PERSON_AND_ORGANIZATION_ROLE ( 'creator' ) ;
#6 = CALENDAR_DATE ( 2022, 20, 6 ) ;
#7 = AXIS2_PLACEMENT_3D ( 'NONE', #182, #301, #251 ) ;
#8 = PERSON_AND_ORGANIZATION ( #242, #30 ) ;
#9 = CLOSED_SHELL ( 'NONE', ( #120, #34, #23, #162, #264, #294, #107, #56, #91 ) ) ;
#10 = DATE_AND_TIME ( #147, #93 ) ;
#11 = DIRECTION ( 'NONE',  ( 0.000000000000000000, 0.000000000000000000, 1.000000000000000000 ) ) ;
#12 = LOCAL_TIME ( 11, 44, 13.00000000000000000, #195 ) ;
#13 = CARTESIAN_POINT ( 'NONE',  ( 4.450000000000000178, 0.000000000000000000, 5.199999999999982414 ) ) ;
#14 = DIRECTION ( 'NONE',  ( -0.000000000000000000, -0.000000000000000000, -1.000000000000000000 ) ) ;
#15 = CYLINDRICAL_SURFACE ( 'NONE', #305, 7.000000000000000000 ) ;
#16 = EDGE_CURVE ( 'NONE', #67, #304, #223, .T. ) ;
#17 = MANIFOLD_SOLID_BREP ( 'Zaoblit1', #9 ) ;
#18 = DIRECTION ( 'NONE',  ( -1.000000000000000000, 1.224646799147353454E-16, 0.000000000000000000 ) ) ;
#19 = ORIENTED_EDGE ( 'NONE', *, *, #129, .F. ) ;
#20 = CC_DESIGN_APPROVAL ( #303, ( #148 ) ) ;
#21 = CARTESIAN_POINT ( 'NONE',  ( 4.250000000000000000, 5.204748896376250699E-16, 805.0000000000000000 ) ) ;
#22 = MECHANICAL_CONTEXT ( 'NONE', #170, 'mechanical' ) ;
#23 = ADVANCED_FACE ( 'NONE', ( #159 ), #15, .T. ) ;
#24 = EDGE_LOOP ( 'NONE', ( #229, #204, #231, #186 ) ) ;
#25 = DIRECTION ( 'NONE',  ( -0.000000000000000000, -0.000000000000000000, -1.000000000000000000 ) ) ;
#26 = DIRECTION ( 'NONE',  ( 1.000000000000000000, 0.000000000000000000, -0.000000000000000000 ) ) ;
#27 = CYLINDRICAL_SURFACE ( 'NONE', #47, 4.250000000000000000 ) ;
#28 = CARTESIAN_POINT ( 'NONE',  ( -7.000000000000000000, 0.000000000000000000, 5.000000000000000000 ) ) ;
#29 = APPROVAL_ROLE ( '' ) ;
#30 = ORGANIZATION ( 'NEURÈENÝ', 'NEURÈENÝ', '' ) ;
#31 = CARTESIAN_POINT ( 'NONE',  ( -4.250000000000000000, 0.000000000000000000, 5.199999999999982414 ) ) ;
#32 = PERSON_AND_ORGANIZATION ( #242, #30 ) ;
#33 = CARTESIAN_POINT ( 'NONE',  ( -4.250000000000000000, 0.000000000000000000, 805.0000000000000000 ) ) ;
#34 = ADVANCED_FACE ( 'NONE', ( #72 ), #27, .T. ) ;
#35 = PERSON_AND_ORGANIZATION ( #242, #30 ) ;
#36 = PERSON_AND_ORGANIZATION_ROLE ( 'creator' ) ;
#37 = DIRECTION ( 'NONE',  ( 0.000000000000000000, 0.000000000000000000, 1.000000000000000000 ) ) ;
#38 = VERTEX_POINT ( 'NONE', #44 ) ;
#39 = AXIS2_PLACEMENT_3D ( 'NONE', #222, #136, #54 ) ;
#40 = DIRECTION ( 'NONE',  ( 0.000000000000000000, -1.000000000000000000, 0.000000000000000000 ) ) ;
#41 = DIRECTION ( 'NONE',  ( 1.224646799147353207E-16, 1.000000000000000000, -0.000000000000000000 ) ) ;
#42 = PLANE ( 'NONE',  #83 ) ;
#43 = ORIENTED_EDGE ( 'NONE', *, *, #224, .T. ) ;
#44 = CARTESIAN_POINT ( 'NONE',  ( -7.000000000000000000, 0.000000000000000000, 0.000000000000000000 ) ) ;
#45 = DIRECTION ( 'NONE',  ( -0.000000000000000000, -0.000000000000000000, -1.000000000000000000 ) ) ;
#46 = TOROIDAL_SURFACE ( 'NONE', #113, 4.450000000000000178, 0.2000000000000000111 ) ;
#47 = AXIS2_PLACEMENT_3D ( 'NONE', #95, #139, #143 ) ;
#48 = ORIENTED_EDGE ( 'NONE', *, *, #153, .T. ) ;
#49 = DATE_AND_TIME ( #215, #58 ) ;
#50 = DIRECTION ( 'NONE',  ( 1.000000000000000000, 0.000000000000000000, 0.000000000000000000 ) ) ;
#51 = CC_DESIGN_APPROVAL ( #82, ( #297 ) ) ;
#52 = PERSON_AND_ORGANIZATION ( #242, #30 ) ;
#53 = CIRCLE ( 'NONE', #216, 7.000000000000000000 ) ;
#54 = DIRECTION ( 'NONE',  ( 1.000000000000000000, 0.000000000000000000, 0.000000000000000000 ) ) ;
#55 = ORIENTED_EDGE ( 'NONE', *, *, #118, .F. ) ;
#56 = ADVANCED_FACE ( 'NONE', ( #211 ), #74, .T. ) ;
#57 = ORIENTED_EDGE ( 'NONE', *, *, #194, .T. ) ;
#58 = LOCAL_TIME ( 11, 44, 13.00000000000000000, #106 ) ;
#59 = CIRCLE ( 'NONE', #289, 7.000000000000000000 ) ;
#60 = FACE_OUTER_BOUND ( 'NONE', #62, .T. ) ;
#61 = ADVANCED_BREP_SHAPE_REPRESENTATION ( '4af7', ( #17, #236 ), #130 ) ;
#62 = EDGE_LOOP ( 'NONE', ( #156, #275 ) ) ;
#63 = CARTESIAN_POINT ( 'NONE',  ( 7.000000000000000000, 8.572527594031473190E-16, 0.000000000000000000 ) ) ;
#64 = EDGE_LOOP ( 'NONE', ( #112, #300, #200, #265 ) ) ;
#65 = EDGE_CURVE ( 'NONE', #84, #38, #233, .T. ) ;
#66 = PLANE ( 'NONE',  #286 ) ;
#67 = VERTEX_POINT ( 'NONE', #209 ) ;
#68 = AXIS2_PLACEMENT_3D ( 'NONE', #134, #248, #114 ) ;
#69 = CC_DESIGN_DATE_AND_TIME_ASSIGNMENT ( #127, #79, ( #146 ) ) ;
#70 = PRODUCT_DEFINITION_SHAPE ( 'NONE', 'NONE',  #148 ) ;
#71 = DIRECTION ( 'NONE',  ( 0.000000000000000000, 0.000000000000000000, 1.000000000000000000 ) ) ;
#72 = FACE_OUTER_BOUND ( 'NONE', #298, .T. ) ;
#73 = DIRECTION ( 'NONE',  ( 1.000000000000000000, 0.000000000000000000, 0.000000000000000000 ) ) ;
#74 = PLANE ( 'NONE',  #245 ) ;
#75 = CIRCLE ( 'NONE', #78, 4.450000000000000178 ) ;
#76 = APPROVAL ( #218, 'NEURÈENÝ' ) ;
#77 = FACE_OUTER_BOUND ( 'NONE', #184, .T. ) ;
#78 = AXIS2_PLACEMENT_3D ( 'NONE', #123, #4, #101 ) ;
#79 = DATE_TIME_ROLE ( 'classification_date' ) ;
#80 = APPROVAL_ROLE ( '' ) ;
#81 = PERSON_AND_ORGANIZATION_ROLE ( 'classification_officer' ) ;
#82 = APPROVAL ( #100, 'NEURÈENÝ' ) ;
#83 = AXIS2_PLACEMENT_3D ( 'NONE', #230, #37, #220 ) ;
#84 = VERTEX_POINT ( 'NONE', #189 ) ;
#85 = EDGE_CURVE ( 'NONE', #176, #38, #183, .T. ) ;
#86 = DIRECTION ( 'NONE',  ( 0.000000000000000000, 0.000000000000000000, 1.000000000000000000 ) ) ;
#87 = ORIENTED_EDGE ( 'NONE', *, *, #175, .T. ) ;
#88 = AXIS2_PLACEMENT_3D ( 'NONE', #116, #206, #1 ) ;
#89 = EDGE_LOOP ( 'NONE', ( #55, #90 ) ) ;
#90 = ORIENTED_EDGE ( 'NONE', *, *, #85, .F. ) ;
#91 = ADVANCED_FACE ( 'NONE', ( #77 ), #46, .F. ) ;
#92 = CARTESIAN_POINT ( 'NONE',  ( -4.250000000000000000, 0.000000000000000000, 805.0000000000000000 ) ) ;
#93 = LOCAL_TIME ( 11, 44, 13.00000000000000000, #234 ) ;
#94 = DIRECTION ( 'NONE',  ( 0.000000000000000000, 0.000000000000000000, 1.000000000000000000 ) ) ;
#95 = CARTESIAN_POINT ( 'NONE',  ( 0.000000000000000000, 0.000000000000000000, 805.0000000000000000 ) ) ;
#96 = CIRCLE ( 'NONE', #39, 4.250000000000000000 ) ;
#97 =( NAMED_UNIT ( * ) SI_UNIT ( $, .STERADIAN. ) SOLID_ANGLE_UNIT ( ) );
#98 = DIRECTION ( 'NONE',  ( 1.000000000000000000, 0.000000000000000000, 0.000000000000000000 ) ) ;
#99 = EDGE_CURVE ( 'NONE', #84, #276, #53, .T. ) ;
#100 = APPROVAL_STATUS ( 'not_yet_approved' ) ;
#101 = DIRECTION ( 'NONE',  ( 1.000000000000000000, 0.000000000000000000, 0.000000000000000000 ) ) ;
#102 = APPROVAL_DATE_TIME ( #290, #82 ) ;
#103 = FACE_OUTER_BOUND ( 'NONE', #24, .T. ) ;
#104 = AXIS2_PLACEMENT_3D ( 'NONE', #132, #86, #185 ) ;
#105 = PERSON_AND_ORGANIZATION_ROLE ( 'design_supplier' ) ;
#106 = COORDINATED_UNIVERSAL_TIME_OFFSET ( 1, 0, .AHEAD. ) ;
#107 = ADVANCED_FACE ( 'NONE', ( #145 ), #235, .T. ) ;
#108 = PERSON_AND_ORGANIZATION ( #242, #30 ) ;
#109 = AXIS2_PLACEMENT_3D ( 'NONE', #13, #40, #306 ) ;
#110 = CARTESIAN_POINT ( 'NONE',  ( 0.000000000000000000, 0.000000000000000000, 5.000000000000000000 ) ) ;
#111 = DIRECTION ( 'NONE',  ( 1.000000000000000000, 0.000000000000000000, 0.000000000000000000 ) ) ;
#112 = ORIENTED_EDGE ( 'NONE', *, *, #247, .F. ) ;
#113 = AXIS2_PLACEMENT_3D ( 'NONE', #263, #94, #169 ) ;
#114 = DIRECTION ( 'NONE',  ( 1.000000000000000000, 0.000000000000000000, 0.000000000000000000 ) ) ;
#115 = VERTEX_POINT ( 'NONE', #92 ) ;
#116 = CARTESIAN_POINT ( 'NONE',  ( 0.000000000000000000, 0.000000000000000000, 805.0000000000000000 ) ) ;
#117 = CIRCLE ( 'NONE', #104, 7.000000000000000000 ) ;
#118 = EDGE_CURVE ( 'NONE', #38, #176, #59, .T. ) ;
#119 = DIRECTION ( 'NONE',  ( 0.000000000000000000, 0.000000000000000000, 1.000000000000000000 ) ) ;
#120 = ADVANCED_FACE ( 'NONE', ( #150 ), #152, .F. ) ;
#121 = LOCAL_TIME ( 11, 44, 13.00000000000000000, #151 ) ;
#122 = DATE_TIME_ROLE ( 'creation_date' ) ;
#123 = CARTESIAN_POINT ( 'NONE',  ( 0.000000000000000000, 0.000000000000000000, 5.000000000000000000 ) ) ;
#124 = PERSON_AND_ORGANIZATION ( #242, #30 ) ;
#125 = CARTESIAN_POINT ( 'NONE',  ( 0.000000000000000000, 0.000000000000000000, 5.000000000000000000 ) ) ;
#126 = CC_DESIGN_SECURITY_CLASSIFICATION ( #146, ( #297 ) ) ;
#127 = DATE_AND_TIME ( #128, #12 ) ;
#128 = CALENDAR_DATE ( 2022, 20, 6 ) ;
#129 = EDGE_CURVE ( 'NONE', #115, #67, #171, .T. ) ;
#130 =( GEOMETRIC_REPRESENTATION_CONTEXT ( 3 ) GLOBAL_UNCERTAINTY_ASSIGNED_CONTEXT ( ( #240 ) ) GLOBAL_UNIT_ASSIGNED_CONTEXT ( ( #190, #284, #97 ) ) REPRESENTATION_CONTEXT ( 'NONE', 'WORKASPACE' ) );
#131 = ORIENTED_EDGE ( 'NONE', *, *, #210, .F. ) ;
#132 = CARTESIAN_POINT ( 'NONE',  ( 0.000000000000000000, 0.000000000000000000, 5.000000000000000000 ) ) ;
#133 = VERTEX_POINT ( 'NONE', #31 ) ;
#134 = CARTESIAN_POINT ( 'NONE',  ( 0.000000000000000000, 0.000000000000000000, 805.0000000000000000 ) ) ;
#135 = CC_DESIGN_DATE_AND_TIME_ASSIGNMENT ( #49, #122, ( #148 ) ) ;
#136 = DIRECTION ( 'NONE',  ( 0.000000000000000000, 0.000000000000000000, 1.000000000000000000 ) ) ;
#137 = EDGE_LOOP ( 'NONE', ( #277, #205 ) ) ;
#138 = EDGE_CURVE ( 'NONE', #255, #164, #75, .T. ) ;
#139 = DIRECTION ( 'NONE',  ( -0.000000000000000000, -0.000000000000000000, -1.000000000000000000 ) ) ;
#140 = CIRCLE ( 'NONE', #221, 0.1999999999999996503 ) ;
#141 = VECTOR ( 'NONE', #14, 1000.000000000000000 ) ;
#142 = CARTESIAN_POINT ( 'NONE',  ( 0.000000000000000000, 0.000000000000000000, 805.0000000000000000 ) ) ;
#143 = DIRECTION ( 'NONE',  ( -1.000000000000000000, 0.000000000000000000, 0.000000000000000000 ) ) ;
#144 = PERSON_AND_ORGANIZATION ( #242, #30 ) ;
#145 = FACE_OUTER_BOUND ( 'NONE', #307, .T. ) ;
#146 = SECURITY_CLASSIFICATION ( '', '', #197 ) ;
#147 = CALENDAR_DATE ( 2022, 20, 6 ) ;
#148 = PRODUCT_DEFINITION ( 'NEZNÁMÝ', '', #297, #227 ) ;
#149 = APPLICATION_PROTOCOL_DEFINITION ( 'international standard', 'config_control_design', 1994, #260 ) ;
#150 = FACE_OUTER_BOUND ( 'NONE', #288, .T. ) ;
#151 = COORDINATED_UNIVERSAL_TIME_OFFSET ( 1, 0, .AHEAD. ) ;
#152 = TOROIDAL_SURFACE ( 'NONE', #238, 4.450000000000000178, 0.2000000000000000111 ) ;
#153 = EDGE_CURVE ( 'NONE', #115, #133, #267, .T. ) ;
#154 = DIRECTION ( 'NONE',  ( 1.000000000000000000, 0.000000000000000000, 0.000000000000000000 ) ) ;
#155 = DIRECTION ( 'NONE',  ( -0.000000000000000000, -0.000000000000000000, -1.000000000000000000 ) ) ;
#156 = ORIENTED_EDGE ( 'NONE', *, *, #99, .T. ) ;
#157 = APPROVAL_PERSON_ORGANIZATION ( #8, #76, #80 ) ;
#158 = CARTESIAN_POINT ( 'NONE',  ( -4.450000000000000178, 5.449678256205721784E-16, 4.999999999999991118 ) ) ;
#159 = FACE_OUTER_BOUND ( 'NONE', #64, .T. ) ;
#160 = DIRECTION ( 'NONE',  ( 1.000000000000000000, 0.000000000000000000, -0.000000000000000000 ) ) ;
#161 = ORIENTED_EDGE ( 'NONE', *, *, #129, .T. ) ;
#162 = ADVANCED_FACE ( 'NONE', ( #103 ), #295, .T. ) ;
#163 = LINE ( 'NONE', #299, #281 ) ;
#164 = VERTEX_POINT ( 'NONE', #158 ) ;
#165 = PRODUCT_RELATED_PRODUCT_CATEGORY ( 'detail', '', ( #282 ) ) ;
#166 = ORIENTED_EDGE ( 'NONE', *, *, #259, .T. ) ;
#167 = AXIS2_PLACEMENT_3D ( 'NONE', #225, #155, #111 ) ;
#168 = DIRECTION ( 'NONE',  ( 0.000000000000000000, 0.000000000000000000, 1.000000000000000000 ) ) ;
#169 = DIRECTION ( 'NONE',  ( 1.000000000000000000, 0.000000000000000000, 0.000000000000000000 ) ) ;
#170 = APPLICATION_CONTEXT ( 'configuration controlled 3d designs of mechanical parts and assemblies' ) ;
#171 = CIRCLE ( 'NONE', #188, 4.250000000000000000 ) ;
#172 = VECTOR ( 'NONE', #213, 1000.000000000000000 ) ;
#173 = APPROVAL_DATE_TIME ( #10, #76 ) ;
#174 = DIRECTION ( 'NONE',  ( 0.000000000000000000, 0.000000000000000000, 1.000000000000000000 ) ) ;
#175 = EDGE_CURVE ( 'NONE', #133, #304, #208, .T. ) ;
#176 = VERTEX_POINT ( 'NONE', #63 ) ;
#177 = DIRECTION ( 'NONE',  ( -0.000000000000000000, -0.000000000000000000, -1.000000000000000000 ) ) ;
#178 = ORIENTED_EDGE ( 'NONE', *, *, #187, .F. ) ;
#179 = FACE_BOUND ( 'NONE', #137, .T. ) ;
#180 = ORIENTED_EDGE ( 'NONE', *, *, #16, .F. ) ;
#181 = VECTOR ( 'NONE', #25, 1000.000000000000000 ) ;
#182 = CARTESIAN_POINT ( 'NONE',  ( 0.000000000000000000, 0.000000000000000000, 5.199999999999982414 ) ) ;
#183 = CIRCLE ( 'NONE', #217, 7.000000000000000000 ) ;
#184 = EDGE_LOOP ( 'NONE', ( #252, #274, #43, #178 ) ) ;
#185 = DIRECTION ( 'NONE',  ( 1.000000000000000000, 0.000000000000000000, 0.000000000000000000 ) ) ;
#186 = ORIENTED_EDGE ( 'NONE', *, *, #118, .T. ) ;
#187 = EDGE_CURVE ( 'NONE', #164, #255, #268, .T. ) ;
#188 = AXIS2_PLACEMENT_3D ( 'NONE', #273, #198, #237 ) ;
#189 = CARTESIAN_POINT ( 'NONE',  ( -7.000000000000000000, 0.000000000000000000, 5.000000000000000000 ) ) ;
#190 =( LENGTH_UNIT ( ) NAMED_UNIT ( * ) SI_UNIT ( .MILLI., .METRE. ) );
#191 = CARTESIAN_POINT ( 'NONE',  ( 0.000000000000000000, 0.000000000000000000, 0.000000000000000000 ) ) ;
#192 = APPROVAL_PERSON_ORGANIZATION ( #144, #82, #29 ) ;
#193 = SHAPE_DEFINITION_REPRESENTATION ( #70, #61 ) ;
#194 = EDGE_CURVE ( 'NONE', #304, #133, #96, .T. ) ;
#195 = COORDINATED_UNIVERSAL_TIME_OFFSET ( 1, 0, .AHEAD. ) ;
#196 = CC_DESIGN_PERSON_AND_ORGANIZATION_ASSIGNMENT ( #270, #81, ( #146 ) ) ;
#197 = SECURITY_CLASSIFICATION_LEVEL ( 'unclassified' ) ;
#198 = DIRECTION ( 'NONE',  ( 0.000000000000000000, 0.000000000000000000, 1.000000000000000000 ) ) ;
#199 = CARTESIAN_POINT ( 'NONE',  ( 4.250000000000000000, 5.204748896376250699E-16, 5.199999999999982414 ) ) ;
#200 = ORIENTED_EDGE ( 'NONE', *, *, #85, .T. ) ;
#201 = CARTESIAN_POINT ( 'NONE',  ( 7.000000000000000000, 8.572527594031473190E-16, 5.000000000000000000 ) ) ;
#202 = ORIENTED_EDGE ( 'NONE', *, *, #138, .F. ) ;
#203 = CC_DESIGN_PERSON_AND_ORGANIZATION_ASSIGNMENT ( #124, #212, ( #282 ) ) ;
#204 = ORIENTED_EDGE ( 'NONE', *, *, #99, .F. ) ;
#205 = ORIENTED_EDGE ( 'NONE', *, *, #187, .T. ) ;
#206 = DIRECTION ( 'NONE',  ( -0.000000000000000000, -0.000000000000000000, -1.000000000000000000 ) ) ;
#207 = APPLICATION_PROTOCOL_DEFINITION ( 'international standard', 'config_control_design', 1994, #170 ) ;
#208 = CIRCLE ( 'NONE', #7, 4.250000000000000000 ) ;
#209 = CARTESIAN_POINT ( 'NONE',  ( 4.250000000000000000, 5.204748896376250699E-16, 805.0000000000000000 ) ) ;
#210 = EDGE_CURVE ( 'NONE', #67, #115, #272, .T. ) ;
#211 = FACE_OUTER_BOUND ( 'NONE', #280, .T. ) ;
#212 = PERSON_AND_ORGANIZATION_ROLE ( 'design_owner' ) ;
#213 = DIRECTION ( 'NONE',  ( -0.000000000000000000, -0.000000000000000000, -1.000000000000000000 ) ) ;
#214 = COORDINATED_UNIVERSAL_TIME_OFFSET ( 1, 0, .AHEAD. ) ;
#215 = CALENDAR_DATE ( 2022, 20, 6 ) ;
#216 = AXIS2_PLACEMENT_3D ( 'NONE', #287, #266, #50 ) ;
#217 = AXIS2_PLACEMENT_3D ( 'NONE', #191, #119, #98 ) ;
#218 = APPROVAL_STATUS ( 'not_yet_approved' ) ;
#219 = CARTESIAN_POINT ( 'NONE',  ( 0.000000000000000000, 0.000000000000000000, 5.199999999999982414 ) ) ;
#220 = DIRECTION ( 'NONE',  ( 1.000000000000000000, 0.000000000000000000, -0.000000000000000000 ) ) ;
#221 = AXIS2_PLACEMENT_3D ( 'NONE', #279, #41, #18 ) ;
#222 = CARTESIAN_POINT ( 'NONE',  ( 0.000000000000000000, 0.000000000000000000, 5.199999999999982414 ) ) ;
#223 = LINE ( 'NONE', #21, #141 ) ;
#224 = EDGE_CURVE ( 'NONE', #304, #255, #256, .T. ) ;
#225 = CARTESIAN_POINT ( 'NONE',  ( 0.000000000000000000, 0.000000000000000000, 5.000000000000000000 ) ) ;
#226 = ORIENTED_EDGE ( 'NONE', *, *, #175, .F. ) ;
#227 = DESIGN_CONTEXT ( 'detailed design', #260, 'design' ) ;
#228 = CARTESIAN_POINT ( 'NONE',  ( 4.450000000000000178, 0.000000000000000000, 4.999999999999991118 ) ) ;
#229 = ORIENTED_EDGE ( 'NONE', *, *, #283, .F. ) ;
#230 = CARTESIAN_POINT ( 'NONE',  ( 0.000000000000000000, 0.000000000000000000, 0.000000000000000000 ) ) ;
#231 = ORIENTED_EDGE ( 'NONE', *, *, #65, .T. ) ;
#232 = AXIS2_PLACEMENT_3D ( 'NONE', #125, #243, #292 ) ;
#233 = LINE ( 'NONE', #28, #181 ) ;
#234 = COORDINATED_UNIVERSAL_TIME_OFFSET ( 1, 0, .AHEAD. ) ;
#235 = CYLINDRICAL_SURFACE ( 'NONE', #88, 4.250000000000000000 ) ;
#236 = AXIS2_PLACEMENT_3D ( 'NONE', #258, #71, #73 ) ;
#237 = DIRECTION ( 'NONE',  ( 1.000000000000000000, 0.000000000000000000, 0.000000000000000000 ) ) ;
#238 = AXIS2_PLACEMENT_3D ( 'NONE', #219, #11, #154 ) ;
#239 = APPROVAL_DATE_TIME ( #269, #303 ) ;
#240 = UNCERTAINTY_MEASURE_WITH_UNIT (LENGTH_MEASURE( 1.000000000000000082E-05 ), #190, 'distance_accuracy_value', 'NONE');
#241 = CALENDAR_DATE ( 2022, 20, 6 ) ;
#242 = PERSON ( 'NEURÈENÝ', 'NEURÈENÝ', 'NEURÈENÝ', ('NEURÈENÝ'), ('NEURÈENÝ'), ('NEURÈENÝ') ) ;
#243 = DIRECTION ( 'NONE',  ( -0.000000000000000000, -0.000000000000000000, -1.000000000000000000 ) ) ;
#244 = CC_DESIGN_PERSON_AND_ORGANIZATION_ASSIGNMENT ( #52, #5, ( #148 ) ) ;
#245 = AXIS2_PLACEMENT_3D ( 'NONE', #142, #168, #26 ) ;
#246 = DIRECTION ( 'NONE',  ( 0.000000000000000000, 0.000000000000000000, 1.000000000000000000 ) ) ;
#247 = EDGE_CURVE ( 'NONE', #276, #84, #117, .T. ) ;
#248 = DIRECTION ( 'NONE',  ( 0.000000000000000000, 0.000000000000000000, 1.000000000000000000 ) ) ;
#249 = ORIENTED_EDGE ( 'NONE', *, *, #224, .F. ) ;
#250 = LOCAL_TIME ( 11, 44, 13.00000000000000000, #214 ) ;
#251 = DIRECTION ( 'NONE',  ( 1.000000000000000000, 0.000000000000000000, 0.000000000000000000 ) ) ;
#252 = ORIENTED_EDGE ( 'NONE', *, *, #259, .F. ) ;
#253 = ORIENTED_EDGE ( 'NONE', *, *, #210, .T. ) ;
#254 = FACE_OUTER_BOUND ( 'NONE', #89, .T. ) ;
#255 = VERTEX_POINT ( 'NONE', #228 ) ;
#256 = CIRCLE ( 'NONE', #109, 0.1999999999999996503 ) ;
#257 = ORIENTED_EDGE ( 'NONE', *, *, #153, .F. ) ;
#258 = CARTESIAN_POINT ( 'NONE',  ( 0.000000000000000000, 0.000000000000000000, 0.000000000000000000 ) ) ;
#259 = EDGE_CURVE ( 'NONE', #133, #164, #140, .T. ) ;
#260 = APPLICATION_CONTEXT ( 'configuration controlled 3d designs of mechanical parts and assemblies' ) ;
#261 = CC_DESIGN_APPROVAL ( #76, ( #146 ) ) ;
#262 = CARTESIAN_POINT ( 'NONE',  ( 0.000000000000000000, 0.000000000000000000, 5.000000000000000000 ) ) ;
#263 = CARTESIAN_POINT ( 'NONE',  ( 0.000000000000000000, 0.000000000000000000, 5.199999999999982414 ) ) ;
#264 = ADVANCED_FACE ( 'NONE', ( #179, #60 ), #66, .T. ) ;
#265 = ORIENTED_EDGE ( 'NONE', *, *, #65, .F. ) ;
#266 = DIRECTION ( 'NONE',  ( 0.000000000000000000, 0.000000000000000000, 1.000000000000000000 ) ) ;
#267 = LINE ( 'NONE', #33, #172 ) ;
#268 = CIRCLE ( 'NONE', #167, 4.450000000000000178 ) ;
#269 = DATE_AND_TIME ( #6, #250 ) ;
#270 = PERSON_AND_ORGANIZATION ( #242, #30 ) ;
#271 = DIRECTION ( 'NONE',  ( 1.000000000000000000, 0.000000000000000000, 0.000000000000000000 ) ) ;
#272 = CIRCLE ( 'NONE', #68, 4.250000000000000000 ) ;
#273 = CARTESIAN_POINT ( 'NONE',  ( 0.000000000000000000, 0.000000000000000000, 805.0000000000000000 ) ) ;
#274 = ORIENTED_EDGE ( 'NONE', *, *, #194, .F. ) ;
#275 = ORIENTED_EDGE ( 'NONE', *, *, #247, .T. ) ;
#276 = VERTEX_POINT ( 'NONE', #201 ) ;
#277 = ORIENTED_EDGE ( 'NONE', *, *, #138, .T. ) ;
#278 = CC_DESIGN_PERSON_AND_ORGANIZATION_ASSIGNMENT ( #35, #36, ( #297 ) ) ;
#279 = CARTESIAN_POINT ( 'NONE',  ( -4.450000000000000178, 5.449678256205721784E-16, 5.199999999999982414 ) ) ;
#280 = EDGE_LOOP ( 'NONE', ( #161, #253 ) ) ;
#281 = VECTOR ( 'NONE', #177, 1000.000000000000000 ) ;
#282 = PRODUCT ( '4af7', '4af7', '', ( #22 ) ) ;
#283 = EDGE_CURVE ( 'NONE', #276, #176, #163, .T. ) ;
#284 =( NAMED_UNIT ( * ) PLANE_ANGLE_UNIT ( ) SI_UNIT ( $, .RADIAN. ) );
#285 = DIRECTION ( 'NONE',  ( -1.000000000000000000, 0.000000000000000000, 0.000000000000000000 ) ) ;
#286 = AXIS2_PLACEMENT_3D ( 'NONE', #110, #246, #160 ) ;
#287 = CARTESIAN_POINT ( 'NONE',  ( 0.000000000000000000, 0.000000000000000000, 5.000000000000000000 ) ) ;
#288 = EDGE_LOOP ( 'NONE', ( #226, #166, #202, #249 ) ) ;
#289 = AXIS2_PLACEMENT_3D ( 'NONE', #296, #174, #271 ) ;
#290 = DATE_AND_TIME ( #241, #121 ) ;
#291 = APPROVAL_STATUS ( 'not_yet_approved' ) ;
#292 = DIRECTION ( 'NONE',  ( -1.000000000000000000, 0.000000000000000000, 0.000000000000000000 ) ) ;
#293 = APPROVAL_PERSON_ORGANIZATION ( #108, #303, #3 ) ;
#294 = ADVANCED_FACE ( 'NONE', ( #254 ), #42, .F. ) ;
#295 = CYLINDRICAL_SURFACE ( 'NONE', #232, 7.000000000000000000 ) ;
#296 = CARTESIAN_POINT ( 'NONE',  ( 0.000000000000000000, 0.000000000000000000, 0.000000000000000000 ) ) ;
#297 = PRODUCT_DEFINITION_FORMATION_WITH_SPECIFIED_SOURCE ( 'LIBOVOLNÝ', '', #282, .NOT_KNOWN. ) ;
#298 = EDGE_LOOP ( 'NONE', ( #131, #302, #57, #257 ) ) ;
#299 = CARTESIAN_POINT ( 'NONE',  ( 7.000000000000000000, 8.572527594031473190E-16, 5.000000000000000000 ) ) ;
#300 = ORIENTED_EDGE ( 'NONE', *, *, #283, .T. ) ;
#301 = DIRECTION ( 'NONE',  ( 0.000000000000000000, 0.000000000000000000, 1.000000000000000000 ) ) ;
#302 = ORIENTED_EDGE ( 'NONE', *, *, #16, .T. ) ;
#303 = APPROVAL ( #291, 'NEURÈENÝ' ) ;
#304 = VERTEX_POINT ( 'NONE', #199 ) ;
#305 = AXIS2_PLACEMENT_3D ( 'NONE', #262, #45, #285 ) ;
#306 = DIRECTION ( 'NONE',  ( 0.000000000000000000, 0.000000000000000000, -1.000000000000000000 ) ) ;
#307 = EDGE_LOOP ( 'NONE', ( #180, #19, #48, #87 ) ) ;
ENDSEC;
END-ISO-10303-21;
