ISO-10303-21;
HEADER;
FILE_DESCRIPTION (( 'STEP AP203' ),
    '1' );
FILE_NAME ('92de.STEP',
    '2022-06-20T10:26:31',
    ( '' ),
    ( '' ),
    'SwSTEP 2.0',
    'SolidWorks 2019',
    '' );
FILE_SCHEMA (( 'CONFIG_CONTROL_DESIGN' ));
ENDSEC;

DATA;
#1 = ORIENTED_EDGE ( 'NONE', *, *, #188, .T. ) ;
#2 = LOCAL_TIME ( 12, 26, 31.00000000000000000, #125 ) ;
#3 = MANIFOLD_SOLID_BREP ( 'Zaoblit1', #185 ) ;
#4 = ORIENTED_EDGE ( 'NONE', *, *, #23, .F. ) ;
#5 = CC_DESIGN_DATE_AND_TIME_ASSIGNMENT ( #21, #297, ( #108 ) ) ;
#6 = DIRECTION ( 'NONE',  ( -0.000000000000000000, -0.000000000000000000, -1.000000000000000000 ) ) ;
#7 = SECURITY_CLASSIFICATION ( '', '', #141 ) ;
#8 = CYLINDRICAL_SURFACE ( 'NONE', #252, 1.250000000000000000 ) ;
#9 = CALENDAR_DATE ( 2022, 20, 6 ) ;
#10 = FACE_OUTER_BOUND ( 'NONE', #99, .T. ) ;
#11 = FACE_OUTER_BOUND ( 'NONE', #191, .T. ) ;
#12 = DATE_AND_TIME ( #80, #22 ) ;
#13 = CARTESIAN_POINT ( 'NONE',  ( 0.000000000000000000, 0.000000000000000000, 1.399999999999998579 ) ) ;
#14 = CYLINDRICAL_SURFACE ( 'NONE', #302, 0.5000000000000000000 ) ;
#15 = CALENDAR_DATE ( 2022, 20, 6 ) ;
#16 = CARTESIAN_POINT ( 'NONE',  ( 0.6999999999999999556, 0.000000000000000000, 1.399999999999998579 ) ) ;
#17 = PRODUCT_DEFINITION_FORMATION_WITH_SPECIFIED_SOURCE ( 'LIBOVOLNÝ', '', #161, .NOT_KNOWN. ) ;
#18 = DIRECTION ( 'NONE',  ( 0.000000000000000000, 0.000000000000000000, 1.000000000000000000 ) ) ;
#19 = CARTESIAN_POINT ( 'NONE',  ( 0.000000000000000000, 0.000000000000000000, 101.2000000000000171 ) ) ;
#20 = ADVANCED_FACE ( 'NONE', ( #11 ), #133, .F. ) ;
#21 = DATE_AND_TIME ( #15, #145 ) ;
#22 = LOCAL_TIME ( 12, 26, 31.00000000000000000, #253 ) ;
#23 = EDGE_CURVE ( 'NONE', #165, #118, #117, .T. ) ;
#24 = AXIS2_PLACEMENT_3D ( 'NONE', #222, #172, #109 ) ;
#25 = DATE_TIME_ROLE ( 'classification_date' ) ;
#26 = ORGANIZATION ( 'NEURÈENÝ', 'NEURÈENÝ', '' ) ;
#27 = VERTEX_POINT ( 'NONE', #101 ) ;
#28 = VECTOR ( 'NONE', #35, 1000.000000000000000 ) ;
#29 = CC_DESIGN_DATE_AND_TIME_ASSIGNMENT ( #305, #25, ( #7 ) ) ;
#30 = VERTEX_POINT ( 'NONE', #199 ) ;
#31 = AXIS2_PLACEMENT_3D ( 'NONE', #197, #18, #248 ) ;
#32 = ORIENTED_EDGE ( 'NONE', *, *, #72, .T. ) ;
#33 = PERSON_AND_ORGANIZATION ( #85, #26 ) ;
#34 = LOCAL_TIME ( 12, 26, 31.00000000000000000, #69 ) ;
#35 = DIRECTION ( 'NONE',  ( -0.000000000000000000, -0.000000000000000000, -1.000000000000000000 ) ) ;
#36 = VERTEX_POINT ( 'NONE', #225 ) ;
#37 = PERSON_AND_ORGANIZATION ( #85, #26 ) ;
#38 = LINE ( 'NONE', #43, #255 ) ;
#39 = DIRECTION ( 'NONE',  ( 0.000000000000000000, 0.000000000000000000, 1.000000000000000000 ) ) ;
#40 = CARTESIAN_POINT ( 'NONE',  ( 0.6999999999999999556, 0.000000000000000000, 1.199999999999999289 ) ) ;
#41 = PLANE ( 'NONE',  #259 ) ;
#42 = DIRECTION ( 'NONE',  ( 1.000000000000000000, 0.000000000000000000, 0.000000000000000000 ) ) ;
#43 = CARTESIAN_POINT ( 'NONE',  ( 0.5000000000000000000, 6.123233995736766036E-17, 101.2000000000000171 ) ) ;
#44 = EDGE_CURVE ( 'NONE', #56, #30, #211, .T. ) ;
#45 = APPLICATION_PROTOCOL_DEFINITION ( 'international standard', 'config_control_design', 1994, #46 ) ;
#46 = APPLICATION_CONTEXT ( 'configuration controlled 3d designs of mechanical parts and assemblies' ) ;
#47 = CIRCLE ( 'NONE', #301, 0.2000000000000000944 ) ;
#48 = EDGE_CURVE ( 'NONE', #118, #165, #132, .T. ) ;
#49 = CIRCLE ( 'NONE', #217, 1.250000000000000000 ) ;
#50 = AXIS2_PLACEMENT_3D ( 'NONE', #196, #136, #171 ) ;
#51 = ORIENTED_EDGE ( 'NONE', *, *, #286, .T. ) ;
#52 = ORIENTED_EDGE ( 'NONE', *, *, #234, .T. ) ;
#53 = CC_DESIGN_PERSON_AND_ORGANIZATION_ASSIGNMENT ( #33, #88, ( #108 ) ) ;
#54 = CIRCLE ( 'NONE', #92, 0.5000000000000000000 ) ;
#55 = UNCERTAINTY_MEASURE_WITH_UNIT (LENGTH_MEASURE( 1.000000000000000082E-05 ), #179, 'distance_accuracy_value', 'NONE');
#56 = VERTEX_POINT ( 'NONE', #65 ) ;
#57 = CC_DESIGN_SECURITY_CLASSIFICATION ( #7, ( #17 ) ) ;
#58 = DIRECTION ( 'NONE',  ( 0.000000000000000000, 0.000000000000000000, 1.000000000000000000 ) ) ;
#59 = DIRECTION ( 'NONE',  ( 0.000000000000000000, 0.000000000000000000, 1.000000000000000000 ) ) ;
#60 = CARTESIAN_POINT ( 'NONE',  ( 0.000000000000000000, 0.000000000000000000, 1.199999999999999956 ) ) ;
#61 = AXIS2_PLACEMENT_3D ( 'NONE', #204, #59, #244 ) ;
#62 = PLANE ( 'NONE',  #279 ) ;
#63 = DIRECTION ( 'NONE',  ( 1.000000000000000000, 0.000000000000000000, -0.000000000000000000 ) ) ;
#64 = CARTESIAN_POINT ( 'NONE',  ( 0.5000000000000000000, 6.123233995736766036E-17, 101.2000000000000171 ) ) ;
#65 = CARTESIAN_POINT ( 'NONE',  ( 1.250000000000000000, 1.530808498934191571E-16, 1.199999999999999956 ) ) ;
#66 = ADVANCED_FACE ( 'NONE', ( #219 ), #8, .T. ) ;
#67 = DIRECTION ( 'NONE',  ( 0.000000000000000000, 0.000000000000000000, -1.000000000000000000 ) ) ;
#68 = DIRECTION ( 'NONE',  ( 1.000000000000000000, 0.000000000000000000, 0.000000000000000000 ) ) ;
#69 = COORDINATED_UNIVERSAL_TIME_OFFSET ( 1, 0, .AHEAD. ) ;
#70 = APPROVAL_DATE_TIME ( #184, #249 ) ;
#71 = AXIS2_PLACEMENT_3D ( 'NONE', #298, #271, #180 ) ;
#72 = EDGE_CURVE ( 'NONE', #30, #56, #49, .T. ) ;
#73 = EDGE_LOOP ( 'NONE', ( #144, #120, #52, #201 ) ) ;
#74 = ORIENTED_EDGE ( 'NONE', *, *, #72, .F. ) ;
#75 = ORIENTED_EDGE ( 'NONE', *, *, #138, .F. ) ;
#76 = DIRECTION ( 'NONE',  ( 0.000000000000000000, 0.000000000000000000, 1.000000000000000000 ) ) ;
#77 = CYLINDRICAL_SURFACE ( 'NONE', #239, 1.250000000000000000 ) ;
#78 = EDGE_CURVE ( 'NONE', #106, #240, #54, .T. ) ;
#79 = DIRECTION ( 'NONE',  ( 1.000000000000000000, 0.000000000000000000, 0.000000000000000000 ) ) ;
#80 = CALENDAR_DATE ( 2022, 20, 6 ) ;
#81 = LINE ( 'NONE', #277, #139 ) ;
#82 = CARTESIAN_POINT ( 'NONE',  ( 0.000000000000000000, 0.000000000000000000, 1.399999999999998579 ) ) ;
#83 = CARTESIAN_POINT ( 'NONE',  ( 0.000000000000000000, 0.000000000000000000, 0.000000000000000000 ) ) ;
#84 = DIRECTION ( 'NONE',  ( 1.000000000000000000, 0.000000000000000000, 0.000000000000000000 ) ) ;
#85 = PERSON ( 'NEURÈENÝ', 'NEURÈENÝ', 'NEURÈENÝ', ('NEURÈENÝ'), ('NEURÈENÝ'), ('NEURÈENÝ') ) ;
#86 = CARTESIAN_POINT ( 'NONE',  ( 0.000000000000000000, 0.000000000000000000, 101.2000000000000171 ) ) ;
#87 = CC_DESIGN_PERSON_AND_ORGANIZATION_ASSIGNMENT ( #183, #258, ( #7 ) ) ;
#88 = PERSON_AND_ORGANIZATION_ROLE ( 'creator' ) ;
#89 = DIRECTION ( 'NONE',  ( 1.000000000000000000, 0.000000000000000000, -0.000000000000000000 ) ) ;
#90 = CARTESIAN_POINT ( 'NONE',  ( 0.000000000000000000, 0.000000000000000000, 0.000000000000000000 ) ) ;
#91 = CARTESIAN_POINT ( 'NONE',  ( -0.6999999999999999556, 8.572527594031471957E-17, 1.399999999999998579 ) ) ;
#92 = AXIS2_PLACEMENT_3D ( 'NONE', #86, #39, #79 ) ;
#93 = CIRCLE ( 'NONE', #233, 0.1999999999999999833 ) ;
#94 = SHAPE_DEFINITION_REPRESENTATION ( #232, #98 ) ;
#95 = EDGE_LOOP ( 'NONE', ( #75, #4, #166, #194 ) ) ;
#96 = TOROIDAL_SURFACE ( 'NONE', #213, 0.6999999999999999556, 0.2000000000000000111 ) ;
#97 = ORIENTED_EDGE ( 'NONE', *, *, #286, .F. ) ;
#98 = ADVANCED_BREP_SHAPE_REPRESENTATION ( '92de', ( #3, #280 ), #169 ) ;
#99 = EDGE_LOOP ( 'NONE', ( #143, #146, #192, #245 ) ) ;
#100 = ADVANCED_FACE ( 'NONE', ( #270 ), #41, .T. ) ;
#101 = CARTESIAN_POINT ( 'NONE',  ( -1.250000000000000000, 0.000000000000000000, 0.000000000000000000 ) ) ;
#102 = EDGE_CURVE ( 'NONE', #266, #189, #300, .T. ) ;
#103 = EDGE_LOOP ( 'NONE', ( #164, #153, #237, #147 ) ) ;
#104 = APPLICATION_PROTOCOL_DEFINITION ( 'international standard', 'config_control_design', 1994, #162 ) ;
#105 = DIRECTION ( 'NONE',  ( 0.000000000000000000, 0.000000000000000000, 1.000000000000000000 ) ) ;
#106 = VERTEX_POINT ( 'NONE', #195 ) ;
#107 = APPROVAL_DATE_TIME ( #12, #140 ) ;
#108 = PRODUCT_DEFINITION ( 'NEZNÁMÝ', '', #17, #190 ) ;
#109 = DIRECTION ( 'NONE',  ( 1.000000000000000000, 0.000000000000000000, 0.000000000000000000 ) ) ;
#110 = PERSON_AND_ORGANIZATION ( #85, #26 ) ;
#111 = CIRCLE ( 'NONE', #295, 1.250000000000000000 ) ;
#112 = FACE_OUTER_BOUND ( 'NONE', #95, .T. ) ;
#113 = ORIENTED_EDGE ( 'NONE', *, *, #284, .T. ) ;
#114 = APPROVAL_ROLE ( '' ) ;
#115 = DIRECTION ( 'NONE',  ( -0.000000000000000000, -0.000000000000000000, -1.000000000000000000 ) ) ;
#116 = ADVANCED_FACE ( 'NONE', ( #275 ), #14, .T. ) ;
#117 = CIRCLE ( 'NONE', #163, 0.5000000000000000000 ) ;
#118 = VERTEX_POINT ( 'NONE', #148 ) ;
#119 = APPROVAL_ROLE ( '' ) ;
#120 = ORIENTED_EDGE ( 'NONE', *, *, #78, .F. ) ;
#121 = ORIENTED_EDGE ( 'NONE', *, *, #44, .T. ) ;
#122 = EDGE_CURVE ( 'NONE', #30, #27, #288, .T. ) ;
#123 = ORIENTED_EDGE ( 'NONE', *, *, #44, .F. ) ;
#124 = CC_DESIGN_APPROVAL ( #140, ( #17 ) ) ;
#125 = COORDINATED_UNIVERSAL_TIME_OFFSET ( 1, 0, .AHEAD. ) ;
#126 = MECHANICAL_CONTEXT ( 'NONE', #162, 'mechanical' ) ;
#127 = DIRECTION ( 'NONE',  ( 0.000000000000000000, 0.000000000000000000, 1.000000000000000000 ) ) ;
#128 = DIRECTION ( 'NONE',  ( -0.000000000000000000, -0.000000000000000000, -1.000000000000000000 ) ) ;
#129 = DIRECTION ( 'NONE',  ( 1.000000000000000000, 0.000000000000000000, 0.000000000000000000 ) ) ;
#130 = PERSON_AND_ORGANIZATION ( #85, #26 ) ;
#131 = DIRECTION ( 'NONE',  ( 0.000000000000000000, 0.000000000000000000, 1.000000000000000000 ) ) ;
#132 = CIRCLE ( 'NONE', #24, 0.5000000000000000000 ) ;
#133 = PLANE ( 'NONE',  #167 ) ;
#134 = CC_DESIGN_APPROVAL ( #249, ( #7 ) ) ;
#135 = PERSON_AND_ORGANIZATION ( #85, #26 ) ;
#136 = DIRECTION ( 'NONE',  ( 0.000000000000000000, 0.000000000000000000, 1.000000000000000000 ) ) ;
#137 = APPROVAL_STATUS ( 'not_yet_approved' ) ;
#138 = EDGE_CURVE ( 'NONE', #118, #189, #93, .T. ) ;
#139 = VECTOR ( 'NONE', #128, 1000.000000000000000 ) ;
#140 = APPROVAL ( #290, 'NEURÈENÝ' ) ;
#141 = SECURITY_CLASSIFICATION_LEVEL ( 'unclassified' ) ;
#142 = APPROVAL_PERSON_ORGANIZATION ( #37, #273, #278 ) ;
#143 = ORIENTED_EDGE ( 'NONE', *, *, #265, .F. ) ;
#144 = ORIENTED_EDGE ( 'NONE', *, *, #256, .F. ) ;
#145 = LOCAL_TIME ( 12, 26, 31.00000000000000000, #223 ) ;
#146 = ORIENTED_EDGE ( 'NONE', *, *, #256, .T. ) ;
#147 = ORIENTED_EDGE ( 'NONE', *, *, #236, .F. ) ;
#148 = CARTESIAN_POINT ( 'NONE',  ( -0.5000000000000000000, 0.000000000000000000, 1.399999999999998579 ) ) ;
#149 = DIRECTION ( 'NONE',  ( -1.000000000000000000, 1.224646799147352714E-16, 0.000000000000000000 ) ) ;
#150 = DIRECTION ( 'NONE',  ( -1.000000000000000000, 0.000000000000000000, 0.000000000000000000 ) ) ;
#151 =( NAMED_UNIT ( * ) SI_UNIT ( $, .STERADIAN. ) SOLID_ANGLE_UNIT ( ) );
#152 = CARTESIAN_POINT ( 'NONE',  ( 0.5000000000000000000, 6.123233995736766036E-17, 1.399999999999998579 ) ) ;
#153 = ORIENTED_EDGE ( 'NONE', *, *, #138, .T. ) ;
#154 = FACE_BOUND ( 'NONE', #214, .T. ) ;
#155 = DIRECTION ( 'NONE',  ( 1.000000000000000000, 0.000000000000000000, 0.000000000000000000 ) ) ;
#156 = DATE_AND_TIME ( #9, #264 ) ;
#157 = LINE ( 'NONE', #174, #28 ) ;
#158 = PERSON_AND_ORGANIZATION_ROLE ( 'design_owner' ) ;
#159 = ADVANCED_FACE ( 'NONE', ( #10 ), #198, .T. ) ;
#160 = AXIS2_PLACEMENT_3D ( 'NONE', #19, #291, #274 ) ;
#161 = PRODUCT ( '92de', '92de', '', ( #126 ) ) ;
#162 = APPLICATION_CONTEXT ( 'configuration controlled 3d designs of mechanical parts and assemblies' ) ;
#163 = AXIS2_PLACEMENT_3D ( 'NONE', #82, #76, #129 ) ;
#164 = ORIENTED_EDGE ( 'NONE', *, *, #48, .F. ) ;
#165 = VERTEX_POINT ( 'NONE', #152 ) ;
#166 = ORIENTED_EDGE ( 'NONE', *, *, #236, .T. ) ;
#167 = AXIS2_PLACEMENT_3D ( 'NONE', #178, #127, #287 ) ;
#168 = EDGE_CURVE ( 'NONE', #189, #266, #182, .T. ) ;
#169 =( GEOMETRIC_REPRESENTATION_CONTEXT ( 3 ) GLOBAL_UNCERTAINTY_ASSIGNED_CONTEXT ( ( #55 ) ) GLOBAL_UNIT_ASSIGNED_CONTEXT ( ( #179, #276, #151 ) ) REPRESENTATION_CONTEXT ( 'NONE', 'WORKASPACE' ) );
#170 = EDGE_LOOP ( 'NONE', ( #261, #285 ) ) ;
#171 = DIRECTION ( 'NONE',  ( 1.000000000000000000, 0.000000000000000000, 0.000000000000000000 ) ) ;
#172 = DIRECTION ( 'NONE',  ( 0.000000000000000000, 0.000000000000000000, 1.000000000000000000 ) ) ;
#173 = DIRECTION ( 'NONE',  ( 1.000000000000000000, 0.000000000000000000, 0.000000000000000000 ) ) ;
#174 = CARTESIAN_POINT ( 'NONE',  ( -0.5000000000000000000, 0.000000000000000000, 101.2000000000000171 ) ) ;
#175 = DIRECTION ( 'NONE',  ( 1.000000000000000000, 0.000000000000000000, 0.000000000000000000 ) ) ;
#176 = DIRECTION ( 'NONE',  ( 0.000000000000000000, 0.000000000000000000, 1.000000000000000000 ) ) ;
#177 = CARTESIAN_POINT ( 'NONE',  ( -0.6999999999999999556, 8.572527594031473190E-17, 1.199999999999999289 ) ) ;
#178 = CARTESIAN_POINT ( 'NONE',  ( 0.000000000000000000, 0.000000000000000000, 0.000000000000000000 ) ) ;
#179 =( LENGTH_UNIT ( ) NAMED_UNIT ( * ) SI_UNIT ( .MILLI., .METRE. ) );
#180 = DIRECTION ( 'NONE',  ( 1.000000000000000000, 0.000000000000000000, 0.000000000000000000 ) ) ;
#181 = CARTESIAN_POINT ( 'NONE',  ( 0.000000000000000000, 0.000000000000000000, 1.199999999999999956 ) ) ;
#182 = CIRCLE ( 'NONE', #71, 0.6999999999999999556 ) ;
#183 = PERSON_AND_ORGANIZATION ( #85, #26 ) ;
#184 = DATE_AND_TIME ( #220, #2 ) ;
#185 = CLOSED_SHELL ( 'NONE', ( #207, #159, #212, #66, #242, #20, #116, #100, #267 ) ) ;
#186 = APPROVAL_PERSON_ORGANIZATION ( #110, #140, #114 ) ;
#187 = APPROVAL_STATUS ( 'not_yet_approved' ) ;
#188 = EDGE_CURVE ( 'NONE', #56, #36, #81, .T. ) ;
#189 = VERTEX_POINT ( 'NONE', #177 ) ;
#190 = DESIGN_CONTEXT ( 'detailed design', #46, 'design' ) ;
#191 = EDGE_LOOP ( 'NONE', ( #97, #281 ) ) ;
#192 = ORIENTED_EDGE ( 'NONE', *, *, #23, .T. ) ;
#193 = CC_DESIGN_PERSON_AND_ORGANIZATION_ASSIGNMENT ( #293, #203, ( #17 ) ) ;
#194 = ORIENTED_EDGE ( 'NONE', *, *, #168, .F. ) ;
#195 = CARTESIAN_POINT ( 'NONE',  ( -0.5000000000000000000, 0.000000000000000000, 101.2000000000000171 ) ) ;
#196 = CARTESIAN_POINT ( 'NONE',  ( 0.000000000000000000, 0.000000000000000000, 101.2000000000000171 ) ) ;
#197 = CARTESIAN_POINT ( 'NONE',  ( 0.000000000000000000, 0.000000000000000000, 1.199999999999999956 ) ) ;
#198 = CYLINDRICAL_SURFACE ( 'NONE', #160, 0.5000000000000000000 ) ;
#199 = CARTESIAN_POINT ( 'NONE',  ( -1.250000000000000000, 0.000000000000000000, 1.199999999999999956 ) ) ;
#200 = FACE_OUTER_BOUND ( 'NONE', #292, .T. ) ;
#201 = ORIENTED_EDGE ( 'NONE', *, *, #48, .T. ) ;
#202 = TOROIDAL_SURFACE ( 'NONE', #61, 0.6999999999999999556, 0.2000000000000000111 ) ;
#203 = PERSON_AND_ORGANIZATION_ROLE ( 'creator' ) ;
#204 = CARTESIAN_POINT ( 'NONE',  ( 0.000000000000000000, 0.000000000000000000, 1.399999999999998579 ) ) ;
#205 = DIRECTION ( 'NONE',  ( -1.000000000000000000, 0.000000000000000000, 0.000000000000000000 ) ) ;
#206 = PRODUCT_RELATED_PRODUCT_CATEGORY ( 'detail', '', ( #161 ) ) ;
#207 = ADVANCED_FACE ( 'NONE', ( #250 ), #96, .F. ) ;
#208 = DIRECTION ( 'NONE',  ( 0.000000000000000000, 0.000000000000000000, 1.000000000000000000 ) ) ;
#209 = CARTESIAN_POINT ( 'NONE',  ( -1.250000000000000000, 0.000000000000000000, 1.199999999999999956 ) ) ;
#210 = CALENDAR_DATE ( 2022, 20, 6 ) ;
#211 = CIRCLE ( 'NONE', #31, 1.250000000000000000 ) ;
#212 = ADVANCED_FACE ( 'NONE', ( #200 ), #77, .T. ) ;
#213 = AXIS2_PLACEMENT_3D ( 'NONE', #13, #105, #84 ) ;
#214 = EDGE_LOOP ( 'NONE', ( #263, #262 ) ) ;
#215 = APPROVAL_PERSON_ORGANIZATION ( #307, #249, #119 ) ;
#216 = ORIENTED_EDGE ( 'NONE', *, *, #188, .F. ) ;
#217 = AXIS2_PLACEMENT_3D ( 'NONE', #268, #58, #175 ) ;
#218 = CIRCLE ( 'NONE', #228, 1.250000000000000000 ) ;
#219 = FACE_OUTER_BOUND ( 'NONE', #238, .T. ) ;
#220 = CALENDAR_DATE ( 2022, 20, 6 ) ;
#221 = DIRECTION ( 'NONE',  ( -0.000000000000000000, -0.000000000000000000, -1.000000000000000000 ) ) ;
#222 = CARTESIAN_POINT ( 'NONE',  ( 0.000000000000000000, 0.000000000000000000, 1.399999999999998579 ) ) ;
#223 = COORDINATED_UNIVERSAL_TIME_OFFSET ( 1, 0, .AHEAD. ) ;
#224 = DIRECTION ( 'NONE',  ( -0.000000000000000000, -0.000000000000000000, -1.000000000000000000 ) ) ;
#225 = CARTESIAN_POINT ( 'NONE',  ( 1.250000000000000000, 1.530808498934191571E-16, 0.000000000000000000 ) ) ;
#226 = COORDINATED_UNIVERSAL_TIME_OFFSET ( 1, 0, .AHEAD. ) ;
#227 = CARTESIAN_POINT ( 'NONE',  ( 0.000000000000000000, 0.000000000000000000, 1.199999999999999956 ) ) ;
#228 = AXIS2_PLACEMENT_3D ( 'NONE', #230, #208, #42 ) ;
#229 = CARTESIAN_POINT ( 'NONE',  ( 0.000000000000000000, 0.000000000000000000, 1.199999999999999956 ) ) ;
#230 = CARTESIAN_POINT ( 'NONE',  ( 0.000000000000000000, 0.000000000000000000, 0.000000000000000000 ) ) ;
#231 = APPROVAL_DATE_TIME ( #156, #273 ) ;
#232 = PRODUCT_DEFINITION_SHAPE ( 'NONE', 'NONE',  #108 ) ;
#233 = AXIS2_PLACEMENT_3D ( 'NONE', #91, #269, #149 ) ;
#234 = EDGE_CURVE ( 'NONE', #106, #118, #157, .T. ) ;
#235 = VECTOR ( 'NONE', #224, 1000.000000000000000 ) ;
#236 = EDGE_CURVE ( 'NONE', #165, #266, #47, .T. ) ;
#237 = ORIENTED_EDGE ( 'NONE', *, *, #102, .F. ) ;
#238 = EDGE_LOOP ( 'NONE', ( #216, #74, #241, #51 ) ) ;
#239 = AXIS2_PLACEMENT_3D ( 'NONE', #227, #221, #247 ) ;
#240 = VERTEX_POINT ( 'NONE', #64 ) ;
#241 = ORIENTED_EDGE ( 'NONE', *, *, #122, .T. ) ;
#242 = ADVANCED_FACE ( 'NONE', ( #154, #254 ), #62, .T. ) ;
#243 = AXIS2_PLACEMENT_3D ( 'NONE', #60, #6, #155 ) ;
#244 = DIRECTION ( 'NONE',  ( 1.000000000000000000, 0.000000000000000000, 0.000000000000000000 ) ) ;
#245 = ORIENTED_EDGE ( 'NONE', *, *, #234, .F. ) ;
#246 = DIRECTION ( 'NONE',  ( 0.000000000000000000, 0.000000000000000000, 1.000000000000000000 ) ) ;
#247 = DIRECTION ( 'NONE',  ( -1.000000000000000000, 0.000000000000000000, 0.000000000000000000 ) ) ;
#248 = DIRECTION ( 'NONE',  ( 1.000000000000000000, 0.000000000000000000, 0.000000000000000000 ) ) ;
#249 = APPROVAL ( #187, 'NEURÈENÝ' ) ;
#250 = FACE_OUTER_BOUND ( 'NONE', #103, .T. ) ;
#251 = DIRECTION ( 'NONE',  ( -0.000000000000000000, -0.000000000000000000, -1.000000000000000000 ) ) ;
#252 = AXIS2_PLACEMENT_3D ( 'NONE', #229, #289, #205 ) ;
#253 = COORDINATED_UNIVERSAL_TIME_OFFSET ( 1, 0, .AHEAD. ) ;
#254 = FACE_OUTER_BOUND ( 'NONE', #282, .T. ) ;
#255 = VECTOR ( 'NONE', #115, 1000.000000000000000 ) ;
#256 = EDGE_CURVE ( 'NONE', #240, #165, #38, .T. ) ;
#257 = CC_DESIGN_PERSON_AND_ORGANIZATION_ASSIGNMENT ( #135, #303, ( #17 ) ) ;
#258 = PERSON_AND_ORGANIZATION_ROLE ( 'classification_officer' ) ;
#259 = AXIS2_PLACEMENT_3D ( 'NONE', #272, #299, #63 ) ;
#260 = CIRCLE ( 'NONE', #50, 0.5000000000000000000 ) ;
#261 = ORIENTED_EDGE ( 'NONE', *, *, #78, .T. ) ;
#262 = ORIENTED_EDGE ( 'NONE', *, *, #168, .T. ) ;
#263 = ORIENTED_EDGE ( 'NONE', *, *, #102, .T. ) ;
#264 = LOCAL_TIME ( 12, 26, 31.00000000000000000, #226 ) ;
#265 = EDGE_CURVE ( 'NONE', #240, #106, #260, .T. ) ;
#266 = VERTEX_POINT ( 'NONE', #40 ) ;
#267 = ADVANCED_FACE ( 'NONE', ( #112 ), #202, .F. ) ;
#268 = CARTESIAN_POINT ( 'NONE',  ( 0.000000000000000000, 0.000000000000000000, 1.199999999999999956 ) ) ;
#269 = DIRECTION ( 'NONE',  ( 1.224646799147353207E-16, 1.000000000000000000, -0.000000000000000000 ) ) ;
#270 = FACE_OUTER_BOUND ( 'NONE', #170, .T. ) ;
#271 = DIRECTION ( 'NONE',  ( -0.000000000000000000, -0.000000000000000000, -1.000000000000000000 ) ) ;
#272 = CARTESIAN_POINT ( 'NONE',  ( 0.000000000000000000, 0.000000000000000000, 101.2000000000000171 ) ) ;
#273 = APPROVAL ( #137, 'NEURÈENÝ' ) ;
#274 = DIRECTION ( 'NONE',  ( -1.000000000000000000, 0.000000000000000000, 0.000000000000000000 ) ) ;
#275 = FACE_OUTER_BOUND ( 'NONE', #73, .T. ) ;
#276 =( NAMED_UNIT ( * ) PLANE_ANGLE_UNIT ( ) SI_UNIT ( $, .RADIAN. ) );
#277 = CARTESIAN_POINT ( 'NONE',  ( 1.250000000000000000, 1.530808498934191571E-16, 1.199999999999999956 ) ) ;
#278 = APPROVAL_ROLE ( '' ) ;
#279 = AXIS2_PLACEMENT_3D ( 'NONE', #181, #131, #89 ) ;
#280 = AXIS2_PLACEMENT_3D ( 'NONE', #90, #246, #173 ) ;
#281 = ORIENTED_EDGE ( 'NONE', *, *, #284, .F. ) ;
#282 = EDGE_LOOP ( 'NONE', ( #32, #121 ) ) ;
#283 = ORIENTED_EDGE ( 'NONE', *, *, #122, .F. ) ;
#284 = EDGE_CURVE ( 'NONE', #36, #27, #218, .T. ) ;
#285 = ORIENTED_EDGE ( 'NONE', *, *, #265, .T. ) ;
#286 = EDGE_CURVE ( 'NONE', #27, #36, #111, .T. ) ;
#287 = DIRECTION ( 'NONE',  ( 1.000000000000000000, 0.000000000000000000, -0.000000000000000000 ) ) ;
#288 = LINE ( 'NONE', #209, #235 ) ;
#289 = DIRECTION ( 'NONE',  ( -0.000000000000000000, -0.000000000000000000, -1.000000000000000000 ) ) ;
#290 = APPROVAL_STATUS ( 'not_yet_approved' ) ;
#291 = DIRECTION ( 'NONE',  ( -0.000000000000000000, -0.000000000000000000, -1.000000000000000000 ) ) ;
#292 = EDGE_LOOP ( 'NONE', ( #123, #1, #113, #283 ) ) ;
#293 = PERSON_AND_ORGANIZATION ( #85, #26 ) ;
#294 = DIRECTION ( 'NONE',  ( 0.000000000000000000, -1.000000000000000000, 0.000000000000000000 ) ) ;
#295 = AXIS2_PLACEMENT_3D ( 'NONE', #83, #176, #68 ) ;
#296 = CARTESIAN_POINT ( 'NONE',  ( 0.000000000000000000, 0.000000000000000000, 101.2000000000000171 ) ) ;
#297 = DATE_TIME_ROLE ( 'creation_date' ) ;
#298 = CARTESIAN_POINT ( 'NONE',  ( 0.000000000000000000, 0.000000000000000000, 1.199999999999999956 ) ) ;
#299 = DIRECTION ( 'NONE',  ( 0.000000000000000000, 0.000000000000000000, 1.000000000000000000 ) ) ;
#300 = CIRCLE ( 'NONE', #243, 0.6999999999999999556 ) ;
#301 = AXIS2_PLACEMENT_3D ( 'NONE', #16, #294, #67 ) ;
#302 = AXIS2_PLACEMENT_3D ( 'NONE', #296, #251, #150 ) ;
#303 = PERSON_AND_ORGANIZATION_ROLE ( 'design_supplier' ) ;
#304 = CC_DESIGN_PERSON_AND_ORGANIZATION_ASSIGNMENT ( #130, #158, ( #161 ) ) ;
#305 = DATE_AND_TIME ( #210, #34 ) ;
#306 = CC_DESIGN_APPROVAL ( #273, ( #108 ) ) ;
#307 = PERSON_AND_ORGANIZATION ( #85, #26 ) ;
ENDSEC;
END-ISO-10303-21;
