ISO-10303-21;
HEADER;
FILE_DESCRIPTION (( 'STEP AP203' ),
    '1' );
FILE_NAME ('7f0c.STEP',
    '2022-06-20T09:24:01',
    ( '' ),
    ( '' ),
    'SwSTEP 2.0',
    'SolidWorks 2019',
    '' );
FILE_SCHEMA (( 'CONFIG_CONTROL_DESIGN' ));
ENDSEC;

DATA;
#1 = EDGE_LOOP ( 'NONE', ( #216, #135, #171, #152 ) ) ;
#2 = EDGE_CURVE ( 'NONE', #125, #93, #229, .T. ) ;
#3 = ORIENTED_EDGE ( 'NONE', *, *, #194, .T. ) ;
#4 = ORIENTED_EDGE ( 'NONE', *, *, #27, .F. ) ;
#5 = EDGE_CURVE ( 'NONE', #173, #76, #290, .T. ) ;
#6 = CARTESIAN_POINT ( 'NONE',  ( 11.00000000000000000, 1.347111479062088405E-15, 7.000000000000000000 ) ) ;
#7 = AXIS2_PLACEMENT_3D ( 'NONE', #273, #34, #226 ) ;
#8 = DIRECTION ( 'NONE',  ( 0.000000000000000000, 0.000000000000000000, 1.000000000000000000 ) ) ;
#9 = VERTEX_POINT ( 'NONE', #113 ) ;
#10 = DIRECTION ( 'NONE',  ( 0.000000000000000000, 0.000000000000000000, 1.000000000000000000 ) ) ;
#11 = LOCAL_TIME ( 11, 24, 1.000000000000000000, #283 ) ;
#12 = DIRECTION ( 'NONE',  ( -0.000000000000000000, -0.000000000000000000, -1.000000000000000000 ) ) ;
#13 = AXIS2_PLACEMENT_3D ( 'NONE', #225, #248, #66 ) ;
#14 = LINE ( 'NONE', #94, #96 ) ;
#15 = COORDINATED_UNIVERSAL_TIME_OFFSET ( 1, 0, .AHEAD. ) ;
#16 = CC_DESIGN_APPROVAL ( #218, ( #36 ) ) ;
#17 = DIRECTION ( 'NONE',  ( -0.000000000000000000, -0.000000000000000000, -1.000000000000000000 ) ) ;
#18 = DIRECTION ( 'NONE',  ( 1.000000000000000000, 0.000000000000000000, 0.000000000000000000 ) ) ;
#19 = CALENDAR_DATE ( 2022, 20, 6 ) ;
#20 = DIRECTION ( 'NONE',  ( 0.000000000000000000, 0.000000000000000000, 1.000000000000000000 ) ) ;
#21 = VECTOR ( 'NONE', #39, 1000.000000000000000 ) ;
#22 = AXIS2_PLACEMENT_3D ( 'NONE', #175, #64, #70 ) ;
#23 = ADVANCED_FACE ( 'NONE', ( #206 ), #159, .T. ) ;
#24 = AXIS2_PLACEMENT_3D ( 'NONE', #78, #20, #266 ) ;
#25 = AXIS2_PLACEMENT_3D ( 'NONE', #203, #69, #163 ) ;
#26 = ORIENTED_EDGE ( 'NONE', *, *, #27, .T. ) ;
#27 = EDGE_CURVE ( 'NONE', #172, #93, #275, .T. ) ;
#28 = FACE_OUTER_BOUND ( 'NONE', #197, .T. ) ;
#29 = CIRCLE ( 'NONE', #294, 0.1999999999999996503 ) ;
#30 = VERTEX_POINT ( 'NONE', #98 ) ;
#31 = AXIS2_PLACEMENT_3D ( 'NONE', #156, #71, #208 ) ;
#32 = PRODUCT ( '7f0c', '7f0c', '', ( #107 ) ) ;
#33 = CC_DESIGN_PERSON_AND_ORGANIZATION_ASSIGNMENT ( #257, #228, ( #36 ) ) ;
#34 = DIRECTION ( 'NONE',  ( 0.000000000000000000, 0.000000000000000000, 1.000000000000000000 ) ) ;
#35 = LINE ( 'NONE', #132, #222 ) ;
#36 = PRODUCT_DEFINITION_FORMATION_WITH_SPECIFIED_SOURCE ( 'LIBOVOLNÝ', '', #32, .NOT_KNOWN. ) ;
#37 = VERTEX_POINT ( 'NONE', #269 ) ;
#38 = CYLINDRICAL_SURFACE ( 'NONE', #232, 8.000000000000000000 ) ;
#39 = DIRECTION ( 'NONE',  ( -0.000000000000000000, -0.000000000000000000, -1.000000000000000000 ) ) ;
#40 = EDGE_CURVE ( 'NONE', #76, #30, #278, .T. ) ;
#41 = ORIENTED_EDGE ( 'NONE', *, *, #279, .T. ) ;
#42 = CARTESIAN_POINT ( 'NONE',  ( 0.000000000000000000, 0.000000000000000000, 322.0000000000000000 ) ) ;
#43 = DIRECTION ( 'NONE',  ( -0.000000000000000000, -0.000000000000000000, -1.000000000000000000 ) ) ;
#44 = ORIENTED_EDGE ( 'NONE', *, *, #91, .T. ) ;
#45 = PERSON_AND_ORGANIZATION ( #124, #260 ) ;
#46 = ORIENTED_EDGE ( 'NONE', *, *, #40, .T. ) ;
#47 = ORIENTED_EDGE ( 'NONE', *, *, #2, .T. ) ;
#48 = PRODUCT_DEFINITION ( 'NEZNÁMÝ', '', #36, #295 ) ;
#49 = ORIENTED_EDGE ( 'NONE', *, *, #209, .F. ) ;
#50 = ORIENTED_EDGE ( 'NONE', *, *, #2, .F. ) ;
#51 = DATE_AND_TIME ( #100, #254 ) ;
#52 = CARTESIAN_POINT ( 'NONE',  ( 8.000000000000000000, 9.797174393178825657E-16, 7.199999999999984190 ) ) ;
#53 = APPROVAL_DATE_TIME ( #258, #61 ) ;
#54 = AXIS2_PLACEMENT_3D ( 'NONE', #126, #106, #68 ) ;
#55 = AXIS2_PLACEMENT_3D ( 'NONE', #85, #10, #223 ) ;
#56 = CIRCLE ( 'NONE', #31, 8.200000000000001066 ) ;
#57 = CC_DESIGN_PERSON_AND_ORGANIZATION_ASSIGNMENT ( #191, #251, ( #205 ) ) ;
#58 = DIRECTION ( 'NONE',  ( 0.000000000000000000, -1.000000000000000000, 0.000000000000000000 ) ) ;
#59 = CARTESIAN_POINT ( 'NONE',  ( 8.200000000000001066, 0.000000000000000000, 7.199999999999984190 ) ) ;
#60 = AXIS2_PLACEMENT_3D ( 'NONE', #129, #202, #296 ) ;
#61 = APPROVAL ( #302, 'NEURÈENÝ' ) ;
#62 = PLANE ( 'NONE',  #147 ) ;
#63 = ORIENTED_EDGE ( 'NONE', *, *, #121, .T. ) ;
#64 = DIRECTION ( 'NONE',  ( -0.000000000000000000, -0.000000000000000000, -1.000000000000000000 ) ) ;
#65 = EDGE_LOOP ( 'NONE', ( #138, #243, #271, #150 ) ) ;
#66 = DIRECTION ( 'NONE',  ( 1.000000000000000000, 0.000000000000000000, -0.000000000000000000 ) ) ;
#67 = EDGE_LOOP ( 'NONE', ( #127, #299 ) ) ;
#68 = DIRECTION ( 'NONE',  ( 1.000000000000000000, 0.000000000000000000, 0.000000000000000000 ) ) ;
#69 = DIRECTION ( 'NONE',  ( -0.000000000000000000, -0.000000000000000000, -1.000000000000000000 ) ) ;
#70 = DIRECTION ( 'NONE',  ( -1.000000000000000000, 0.000000000000000000, 0.000000000000000000 ) ) ;
#71 = DIRECTION ( 'NONE',  ( -0.000000000000000000, -0.000000000000000000, -1.000000000000000000 ) ) ;
#72 = CARTESIAN_POINT ( 'NONE',  ( -8.200000000000001066, 1.004210375300829674E-15, 7.199999999999984190 ) ) ;
#73 = UNCERTAINTY_MEASURE_WITH_UNIT (LENGTH_MEASURE( 1.000000000000000082E-05 ), #198, 'distance_accuracy_value', 'NONE');
#74 = DIRECTION ( 'NONE',  ( 0.000000000000000000, 0.000000000000000000, 1.000000000000000000 ) ) ;
#75 = DATE_AND_TIME ( #305, #274 ) ;
#76 = VERTEX_POINT ( 'NONE', #92 ) ;
#77 = APPROVAL_DATE_TIME ( #51, #218 ) ;
#78 = CARTESIAN_POINT ( 'NONE',  ( 0.000000000000000000, 0.000000000000000000, 7.199999999999984190 ) ) ;
#79 = COORDINATED_UNIVERSAL_TIME_OFFSET ( 1, 0, .AHEAD. ) ;
#80 = APPROVAL_ROLE ( '' ) ;
#81 = DIRECTION ( 'NONE',  ( 0.000000000000000000, 0.000000000000000000, 1.000000000000000000 ) ) ;
#82 = EDGE_CURVE ( 'NONE', #9, #181, #217, .T. ) ;
#83 = CIRCLE ( 'NONE', #195, 11.00000000000000000 ) ;
#84 = ORIENTED_EDGE ( 'NONE', *, *, #86, .T. ) ;
#85 = CARTESIAN_POINT ( 'NONE',  ( 0.000000000000000000, 0.000000000000000000, 0.000000000000000000 ) ) ;
#86 = EDGE_CURVE ( 'NONE', #181, #9, #56, .T. ) ;
#87 = DIRECTION ( 'NONE',  ( -1.000000000000000000, 0.000000000000000000, 0.000000000000000000 ) ) ;
#88 = DIRECTION ( 'NONE',  ( -0.000000000000000000, -0.000000000000000000, -1.000000000000000000 ) ) ;
#89 = CARTESIAN_POINT ( 'NONE',  ( 0.000000000000000000, 0.000000000000000000, 7.000000000000000000 ) ) ;
#90 = FACE_BOUND ( 'NONE', #122, .T. ) ;
#91 = EDGE_CURVE ( 'NONE', #37, #172, #35, .T. ) ;
#92 = CARTESIAN_POINT ( 'NONE',  ( -11.00000000000000000, 0.000000000000000000, 7.000000000000000000 ) ) ;
#93 = VERTEX_POINT ( 'NONE', #249 ) ;
#94 = CARTESIAN_POINT ( 'NONE',  ( 11.00000000000000000, 1.347111479062088405E-15, 7.000000000000000000 ) ) ;
#95 = AXIS2_PLACEMENT_3D ( 'NONE', #72, #267, #149 ) ;
#96 = VECTOR ( 'NONE', #43, 1000.000000000000000 ) ;
#97 = CALENDAR_DATE ( 2022, 20, 6 ) ;
#98 = CARTESIAN_POINT ( 'NONE',  ( -11.00000000000000000, 0.000000000000000000, 0.000000000000000000 ) ) ;
#99 = CARTESIAN_POINT ( 'NONE',  ( 0.000000000000000000, 0.000000000000000000, 322.0000000000000000 ) ) ;
#100 = CALENDAR_DATE ( 2022, 20, 6 ) ;
#101 = APPLICATION_PROTOCOL_DEFINITION ( 'international standard', 'config_control_design', 1994, #186 ) ;
#102 = ADVANCED_FACE ( 'NONE', ( #204 ), #298, .T. ) ;
#103 = CARTESIAN_POINT ( 'NONE',  ( -8.000000000000000000, 0.000000000000000000, 322.0000000000000000 ) ) ;
#104 = EDGE_CURVE ( 'NONE', #173, #277, #14, .T. ) ;
#105 = PLANE ( 'NONE',  #13 ) ;
#106 = DIRECTION ( 'NONE',  ( 0.000000000000000000, 0.000000000000000000, 1.000000000000000000 ) ) ;
#107 = MECHANICAL_CONTEXT ( 'NONE', #142, 'mechanical' ) ;
#108 = CC_DESIGN_APPROVAL ( #61, ( #205 ) ) ;
#109 = CC_DESIGN_DATE_AND_TIME_ASSIGNMENT ( #215, #234, ( #205 ) ) ;
#110 = DIRECTION ( 'NONE',  ( 1.000000000000000000, 0.000000000000000000, 0.000000000000000000 ) ) ;
#111 = ORIENTED_EDGE ( 'NONE', *, *, #268, .F. ) ;
#112 = FACE_OUTER_BOUND ( 'NONE', #230, .T. ) ;
#113 = CARTESIAN_POINT ( 'NONE',  ( 8.200000000000001066, 0.000000000000000000, 6.999999999999992006 ) ) ;
#114 = SHAPE_DEFINITION_REPRESENTATION ( #293, #212 ) ;
#115 = CARTESIAN_POINT ( 'NONE',  ( -8.000000000000000000, 0.000000000000000000, 322.0000000000000000 ) ) ;
#116 = APPROVAL_PERSON_ORGANIZATION ( #210, #61, #211 ) ;
#117 = DIRECTION ( 'NONE',  ( -0.000000000000000000, -0.000000000000000000, -1.000000000000000000 ) ) ;
#118 = APPROVAL_STATUS ( 'not_yet_approved' ) ;
#119 = DIRECTION ( 'NONE',  ( 1.000000000000000000, 0.000000000000000000, 0.000000000000000000 ) ) ;
#120 = COORDINATED_UNIVERSAL_TIME_OFFSET ( 1, 0, .AHEAD. ) ;
#121 = EDGE_CURVE ( 'NONE', #37, #125, #190, .T. ) ;
#122 = EDGE_LOOP ( 'NONE', ( #140, #84 ) ) ;
#123 = DIRECTION ( 'NONE',  ( 0.000000000000000000, 0.000000000000000000, 1.000000000000000000 ) ) ;
#124 = PERSON ( 'NEURÈENÝ', 'NEURÈENÝ', 'NEURÈENÝ', ('NEURÈENÝ'), ('NEURÈENÝ'), ('NEURÈENÝ') ) ;
#125 = VERTEX_POINT ( 'NONE', #103 ) ;
#126 = CARTESIAN_POINT ( 'NONE',  ( 0.000000000000000000, 0.000000000000000000, 0.000000000000000000 ) ) ;
#127 = ORIENTED_EDGE ( 'NONE', *, *, #193, .T. ) ;
#128 = APPROVAL ( #167, 'NEURÈENÝ' ) ;
#129 = CARTESIAN_POINT ( 'NONE',  ( 0.000000000000000000, 0.000000000000000000, 0.000000000000000000 ) ) ;
#130 = EDGE_LOOP ( 'NONE', ( #133, #250, #47, #41 ) ) ;
#131 = DIRECTION ( 'NONE',  ( 1.000000000000000000, 0.000000000000000000, 0.000000000000000000 ) ) ;
#132 = CARTESIAN_POINT ( 'NONE',  ( 8.000000000000000000, 9.797174393178825657E-16, 322.0000000000000000 ) ) ;
#133 = ORIENTED_EDGE ( 'NONE', *, *, #91, .F. ) ;
#134 = DATE_TIME_ROLE ( 'creation_date' ) ;
#135 = ORIENTED_EDGE ( 'NONE', *, *, #268, .T. ) ;
#136 = APPROVAL_ROLE ( '' ) ;
#137 = CC_DESIGN_PERSON_AND_ORGANIZATION_ASSIGNMENT ( #141, #160, ( #36 ) ) ;
#138 = ORIENTED_EDGE ( 'NONE', *, *, #5, .F. ) ;
#139 = COORDINATED_UNIVERSAL_TIME_OFFSET ( 1, 0, .AHEAD. ) ;
#140 = ORIENTED_EDGE ( 'NONE', *, *, #82, .T. ) ;
#141 = PERSON_AND_ORGANIZATION ( #124, #260 ) ;
#142 = APPLICATION_CONTEXT ( 'configuration controlled 3d designs of mechanical parts and assemblies' ) ;
#143 = EDGE_CURVE ( 'NONE', #172, #9, #29, .T. ) ;
#144 = AXIS2_PLACEMENT_3D ( 'NONE', #245, #8, #110 ) ;
#145 = AXIS2_PLACEMENT_3D ( 'NONE', #89, #117, #179 ) ;
#146 = PRODUCT_RELATED_PRODUCT_CATEGORY ( 'detail', '', ( #32 ) ) ;
#147 = AXIS2_PLACEMENT_3D ( 'NONE', #242, #123, #219 ) ;
#148 = ORIENTED_EDGE ( 'NONE', *, *, #143, .T. ) ;
#149 = DIRECTION ( 'NONE',  ( -1.000000000000000000, 1.224646799147353207E-16, 0.000000000000000000 ) ) ;
#150 = ORIENTED_EDGE ( 'NONE', *, *, #40, .F. ) ;
#151 = ADVANCED_FACE ( 'NONE', ( #264 ), #282, .F. ) ;
#152 = ORIENTED_EDGE ( 'NONE', *, *, #143, .F. ) ;
#153 = FACE_OUTER_BOUND ( 'NONE', #67, .T. ) ;
#154 = CARTESIAN_POINT ( 'NONE',  ( -11.00000000000000000, 0.000000000000000000, 7.000000000000000000 ) ) ;
#155 = CARTESIAN_POINT ( 'NONE',  ( 0.000000000000000000, 0.000000000000000000, 7.000000000000000000 ) ) ;
#156 = CARTESIAN_POINT ( 'NONE',  ( 0.000000000000000000, 0.000000000000000000, 7.000000000000000000 ) ) ;
#157 = AXIS2_PLACEMENT_3D ( 'NONE', #297, #247, #119 ) ;
#158 = CYLINDRICAL_SURFACE ( 'NONE', #286, 11.00000000000000000 ) ;
#159 = CYLINDRICAL_SURFACE ( 'NONE', #25, 11.00000000000000000 ) ;
#160 = PERSON_AND_ORGANIZATION_ROLE ( 'design_supplier' ) ;
#161 = ORIENTED_EDGE ( 'NONE', *, *, #189, .F. ) ;
#162 = DATE_AND_TIME ( #97, #220 ) ;
#163 = DIRECTION ( 'NONE',  ( -1.000000000000000000, 0.000000000000000000, 0.000000000000000000 ) ) ;
#164 = AXIS2_PLACEMENT_3D ( 'NONE', #288, #81, #170 ) ;
#165 = CIRCLE ( 'NONE', #144, 8.000000000000000000 ) ;
#166 = ORIENTED_EDGE ( 'NONE', *, *, #104, .F. ) ;
#167 = APPROVAL_STATUS ( 'not_yet_approved' ) ;
#168 = ADVANCED_FACE ( 'NONE', ( #240 ), #62, .F. ) ;
#169 = PERSON_AND_ORGANIZATION_ROLE ( 'creator' ) ;
#170 = DIRECTION ( 'NONE',  ( 1.000000000000000000, 0.000000000000000000, 0.000000000000000000 ) ) ;
#171 = ORIENTED_EDGE ( 'NONE', *, *, #82, .F. ) ;
#172 = VERTEX_POINT ( 'NONE', #52 ) ;
#173 = VERTEX_POINT ( 'NONE', #6 ) ;
#174 =( NAMED_UNIT ( * ) SI_UNIT ( $, .STERADIAN. ) SOLID_ANGLE_UNIT ( ) );
#175 = CARTESIAN_POINT ( 'NONE',  ( 0.000000000000000000, 0.000000000000000000, 322.0000000000000000 ) ) ;
#176 = CIRCLE ( 'NONE', #95, 0.2000000000000005107 ) ;
#177 = ADVANCED_FACE ( 'NONE', ( #28 ), #235, .F. ) ;
#178 = FACE_OUTER_BOUND ( 'NONE', #65, .T. ) ;
#179 = DIRECTION ( 'NONE',  ( 1.000000000000000000, 0.000000000000000000, 0.000000000000000000 ) ) ;
#180 = CARTESIAN_POINT ( 'NONE',  ( 0.000000000000000000, 0.000000000000000000, 7.000000000000000000 ) ) ;
#181 = VERTEX_POINT ( 'NONE', #304 ) ;
#182 = CARTESIAN_POINT ( 'NONE',  ( 0.000000000000000000, 0.000000000000000000, 7.000000000000000000 ) ) ;
#183 = CC_DESIGN_SECURITY_CLASSIFICATION ( #205, ( #36 ) ) ;
#184 = CARTESIAN_POINT ( 'NONE',  ( 0.000000000000000000, 0.000000000000000000, 322.0000000000000000 ) ) ;
#185 = PERSON_AND_ORGANIZATION_ROLE ( 'design_owner' ) ;
#186 = APPLICATION_CONTEXT ( 'configuration controlled 3d designs of mechanical parts and assemblies' ) ;
#187 = ORIENTED_EDGE ( 'NONE', *, *, #86, .F. ) ;
#188 = DIRECTION ( 'NONE',  ( 0.000000000000000000, 0.000000000000000000, 1.000000000000000000 ) ) ;
#189 = EDGE_CURVE ( 'NONE', #30, #277, #214, .T. ) ;
#190 = CIRCLE ( 'NONE', #306, 8.000000000000000000 ) ;
#191 = PERSON_AND_ORGANIZATION ( #124, #260 ) ;
#192 = PERSON_AND_ORGANIZATION ( #124, #260 ) ;
#193 = EDGE_CURVE ( 'NONE', #76, #173, #83, .T. ) ;
#194 = EDGE_CURVE ( 'NONE', #125, #37, #272, .T. ) ;
#195 = AXIS2_PLACEMENT_3D ( 'NONE', #182, #244, #131 ) ;
#196 =( NAMED_UNIT ( * ) PLANE_ANGLE_UNIT ( ) SI_UNIT ( $, .RADIAN. ) );
#197 = EDGE_LOOP ( 'NONE', ( #111, #4, #148, #187 ) ) ;
#198 =( LENGTH_UNIT ( ) NAMED_UNIT ( * ) SI_UNIT ( .MILLI., .METRE. ) );
#199 = ADVANCED_FACE ( 'NONE', ( #178 ), #158, .T. ) ;
#200 = CIRCLE ( 'NONE', #54, 11.00000000000000000 ) ;
#201 = APPLICATION_PROTOCOL_DEFINITION ( 'international standard', 'config_control_design', 1994, #142 ) ;
#202 = DIRECTION ( 'NONE',  ( 0.000000000000000000, 0.000000000000000000, 1.000000000000000000 ) ) ;
#203 = CARTESIAN_POINT ( 'NONE',  ( 0.000000000000000000, 0.000000000000000000, 7.000000000000000000 ) ) ;
#204 = FACE_OUTER_BOUND ( 'NONE', #280, .T. ) ;
#205 = SECURITY_CLASSIFICATION ( '', '', #252 ) ;
#206 = FACE_OUTER_BOUND ( 'NONE', #256, .T. ) ;
#207 = AXIS2_PLACEMENT_3D ( 'NONE', #99, #188, #227 ) ;
#208 = DIRECTION ( 'NONE',  ( 1.000000000000000000, 0.000000000000000000, 0.000000000000000000 ) ) ;
#209 = EDGE_CURVE ( 'NONE', #277, #30, #200, .T. ) ;
#210 = PERSON_AND_ORGANIZATION ( #124, #260 ) ;
#211 = APPROVAL_ROLE ( '' ) ;
#212 = ADVANCED_BREP_SHAPE_REPRESENTATION ( '7f0c', ( #237, #55 ), #287 ) ;
#213 = DIRECTION ( 'NONE',  ( 1.000000000000000000, 0.000000000000000000, 0.000000000000000000 ) ) ;
#214 = CIRCLE ( 'NONE', #60, 11.00000000000000000 ) ;
#215 = DATE_AND_TIME ( #259, #11 ) ;
#216 = ORIENTED_EDGE ( 'NONE', *, *, #279, .F. ) ;
#217 = CIRCLE ( 'NONE', #145, 8.200000000000001066 ) ;
#218 = APPROVAL ( #118, 'NEURÈENÝ' ) ;
#219 = DIRECTION ( 'NONE',  ( 1.000000000000000000, 0.000000000000000000, -0.000000000000000000 ) ) ;
#220 = LOCAL_TIME ( 11, 24, 1.000000000000000000, #139 ) ;
#221 = DIRECTION ( 'NONE',  ( -1.000000000000000000, 0.000000000000000000, 0.000000000000000000 ) ) ;
#222 = VECTOR ( 'NONE', #303, 1000.000000000000000 ) ;
#223 = DIRECTION ( 'NONE',  ( 1.000000000000000000, 0.000000000000000000, 0.000000000000000000 ) ) ;
#224 = ADVANCED_FACE ( 'NONE', ( #292 ), #265, .T. ) ;
#225 = CARTESIAN_POINT ( 'NONE',  ( 0.000000000000000000, 0.000000000000000000, 7.000000000000000000 ) ) ;
#226 = DIRECTION ( 'NONE',  ( 1.000000000000000000, 0.000000000000000000, 0.000000000000000000 ) ) ;
#227 = DIRECTION ( 'NONE',  ( 1.000000000000000000, 0.000000000000000000, -0.000000000000000000 ) ) ;
#228 = PERSON_AND_ORGANIZATION_ROLE ( 'creator' ) ;
#229 = LINE ( 'NONE', #115, #255 ) ;
#230 = EDGE_LOOP ( 'NONE', ( #289, #44, #26, #50 ) ) ;
#231 = PERSON_AND_ORGANIZATION ( #124, #260 ) ;
#232 = AXIS2_PLACEMENT_3D ( 'NONE', #42, #88, #221 ) ;
#233 = ADVANCED_FACE ( 'NONE', ( #90, #153 ), #105, .T. ) ;
#234 = DATE_TIME_ROLE ( 'classification_date' ) ;
#235 = TOROIDAL_SURFACE ( 'NONE', #24, 8.200000000000001066, 0.2000000000000000111 ) ;
#236 = AXIS2_PLACEMENT_3D ( 'NONE', #180, #74, #18 ) ;
#237 = MANIFOLD_SOLID_BREP ( 'Zaoblit1', #246 ) ;
#238 = APPROVAL_PERSON_ORGANIZATION ( #192, #128, #136 ) ;
#239 = APPROVAL_PERSON_ORGANIZATION ( #231, #218, #80 ) ;
#240 = FACE_OUTER_BOUND ( 'NONE', #263, .T. ) ;
#241 = ORIENTED_EDGE ( 'NONE', *, *, #193, .F. ) ;
#242 = CARTESIAN_POINT ( 'NONE',  ( 0.000000000000000000, 0.000000000000000000, 0.000000000000000000 ) ) ;
#243 = ORIENTED_EDGE ( 'NONE', *, *, #104, .T. ) ;
#244 = DIRECTION ( 'NONE',  ( 0.000000000000000000, 0.000000000000000000, 1.000000000000000000 ) ) ;
#245 = CARTESIAN_POINT ( 'NONE',  ( 0.000000000000000000, 0.000000000000000000, 7.199999999999984190 ) ) ;
#246 = CLOSED_SHELL ( 'NONE', ( #151, #284, #199, #23, #233, #168, #224, #102, #177 ) ) ;
#247 = DIRECTION ( 'NONE',  ( 0.000000000000000000, 0.000000000000000000, 1.000000000000000000 ) ) ;
#248 = DIRECTION ( 'NONE',  ( 0.000000000000000000, 0.000000000000000000, 1.000000000000000000 ) ) ;
#249 = CARTESIAN_POINT ( 'NONE',  ( -8.000000000000000000, 0.000000000000000000, 7.199999999999984190 ) ) ;
#250 = ORIENTED_EDGE ( 'NONE', *, *, #194, .F. ) ;
#251 = PERSON_AND_ORGANIZATION_ROLE ( 'classification_officer' ) ;
#252 = SECURITY_CLASSIFICATION_LEVEL ( 'unclassified' ) ;
#253 = CC_DESIGN_DATE_AND_TIME_ASSIGNMENT ( #162, #134, ( #48 ) ) ;
#254 = LOCAL_TIME ( 11, 24, 1.000000000000000000, #79 ) ;
#255 = VECTOR ( 'NONE', #17, 1000.000000000000000 ) ;
#256 = EDGE_LOOP ( 'NONE', ( #166, #241, #46, #261 ) ) ;
#257 = PERSON_AND_ORGANIZATION ( #124, #260 ) ;
#258 = DATE_AND_TIME ( #19, #307 ) ;
#259 = CALENDAR_DATE ( 2022, 20, 6 ) ;
#260 = ORGANIZATION ( 'NEURÈENÝ', 'NEURÈENÝ', '' ) ;
#261 = ORIENTED_EDGE ( 'NONE', *, *, #189, .T. ) ;
#262 = DIRECTION ( 'NONE',  ( 0.000000000000000000, 0.000000000000000000, -1.000000000000000000 ) ) ;
#263 = EDGE_LOOP ( 'NONE', ( #161, #49 ) ) ;
#264 = FACE_OUTER_BOUND ( 'NONE', #1, .T. ) ;
#265 = CYLINDRICAL_SURFACE ( 'NONE', #22, 8.000000000000000000 ) ;
#266 = DIRECTION ( 'NONE',  ( 1.000000000000000000, 0.000000000000000000, 0.000000000000000000 ) ) ;
#267 = DIRECTION ( 'NONE',  ( 1.224646799147353207E-16, 1.000000000000000000, -0.000000000000000000 ) ) ;
#268 = EDGE_CURVE ( 'NONE', #93, #181, #176, .T. ) ;
#269 = CARTESIAN_POINT ( 'NONE',  ( 8.000000000000000000, 9.797174393178825657E-16, 322.0000000000000000 ) ) ;
#270 = CARTESIAN_POINT ( 'NONE',  ( 11.00000000000000000, 1.347111479062088405E-15, 0.000000000000000000 ) ) ;
#271 = ORIENTED_EDGE ( 'NONE', *, *, #209, .T. ) ;
#272 = CIRCLE ( 'NONE', #7, 8.000000000000000000 ) ;
#273 = CARTESIAN_POINT ( 'NONE',  ( 0.000000000000000000, 0.000000000000000000, 322.0000000000000000 ) ) ;
#274 = LOCAL_TIME ( 11, 24, 1.000000000000000000, #120 ) ;
#275 = CIRCLE ( 'NONE', #157, 8.000000000000000000 ) ;
#276 = DIRECTION ( 'NONE',  ( 0.000000000000000000, 0.000000000000000000, 1.000000000000000000 ) ) ;
#277 = VERTEX_POINT ( 'NONE', #270 ) ;
#278 = LINE ( 'NONE', #154, #21 ) ;
#279 = EDGE_CURVE ( 'NONE', #93, #172, #165, .T. ) ;
#280 = EDGE_LOOP ( 'NONE', ( #3, #63 ) ) ;
#281 = PERSON_AND_ORGANIZATION ( #124, #260 ) ;
#282 = TOROIDAL_SURFACE ( 'NONE', #164, 8.200000000000001066, 0.2000000000000000111 ) ;
#283 = COORDINATED_UNIVERSAL_TIME_OFFSET ( 1, 0, .AHEAD. ) ;
#284 = ADVANCED_FACE ( 'NONE', ( #112 ), #38, .T. ) ;
#285 = APPROVAL_DATE_TIME ( #75, #128 ) ;
#286 = AXIS2_PLACEMENT_3D ( 'NONE', #155, #12, #87 ) ;
#287 =( GEOMETRIC_REPRESENTATION_CONTEXT ( 3 ) GLOBAL_UNCERTAINTY_ASSIGNED_CONTEXT ( ( #73 ) ) GLOBAL_UNIT_ASSIGNED_CONTEXT ( ( #198, #196, #174 ) ) REPRESENTATION_CONTEXT ( 'NONE', 'WORKASPACE' ) );
#288 = CARTESIAN_POINT ( 'NONE',  ( 0.000000000000000000, 0.000000000000000000, 7.199999999999984190 ) ) ;
#289 = ORIENTED_EDGE ( 'NONE', *, *, #121, .F. ) ;
#290 = CIRCLE ( 'NONE', #236, 11.00000000000000000 ) ;
#291 = CC_DESIGN_PERSON_AND_ORGANIZATION_ASSIGNMENT ( #281, #169, ( #48 ) ) ;
#292 = FACE_OUTER_BOUND ( 'NONE', #130, .T. ) ;
#293 = PRODUCT_DEFINITION_SHAPE ( 'NONE', 'NONE',  #48 ) ;
#294 = AXIS2_PLACEMENT_3D ( 'NONE', #59, #58, #262 ) ;
#295 = DESIGN_CONTEXT ( 'detailed design', #186, 'design' ) ;
#296 = DIRECTION ( 'NONE',  ( 1.000000000000000000, 0.000000000000000000, 0.000000000000000000 ) ) ;
#297 = CARTESIAN_POINT ( 'NONE',  ( 0.000000000000000000, 0.000000000000000000, 7.199999999999984190 ) ) ;
#298 = PLANE ( 'NONE',  #207 ) ;
#299 = ORIENTED_EDGE ( 'NONE', *, *, #5, .T. ) ;
#300 = CC_DESIGN_APPROVAL ( #128, ( #48 ) ) ;
#301 = CC_DESIGN_PERSON_AND_ORGANIZATION_ASSIGNMENT ( #45, #185, ( #32 ) ) ;
#302 = APPROVAL_STATUS ( 'not_yet_approved' ) ;
#303 = DIRECTION ( 'NONE',  ( -0.000000000000000000, -0.000000000000000000, -1.000000000000000000 ) ) ;
#304 = CARTESIAN_POINT ( 'NONE',  ( -8.200000000000001066, 1.004210375300829674E-15, 6.999999999999992006 ) ) ;
#305 = CALENDAR_DATE ( 2022, 20, 6 ) ;
#306 = AXIS2_PLACEMENT_3D ( 'NONE', #184, #276, #213 ) ;
#307 = LOCAL_TIME ( 11, 24, 1.000000000000000000, #15 ) ;
ENDSEC;
END-ISO-10303-21;
