ISO-10303-21;
HEADER;
FILE_DESCRIPTION (( 'STEP AP203' ),
    '1' );
FILE_NAME ('8d10.STEP',
    '2022-06-20T09:54:18',
    ( '' ),
    ( '' ),
    'SwSTEP 2.0',
    'SolidWorks 2019',
    '' );
FILE_SCHEMA (( 'CONFIG_CONTROL_DESIGN' ));
ENDSEC;

DATA;
#1 = APPROVAL_DATE_TIME ( #260, #306 ) ;
#2 = ORIENTED_EDGE ( 'NONE', *, *, #273, .F. ) ;
#3 = ORIENTED_EDGE ( 'NONE', *, *, #273, .T. ) ;
#4 = APPROVAL_PERSON_ORGANIZATION ( #172, #102, #59 ) ;
#5 = CC_DESIGN_DATE_AND_TIME_ASSIGNMENT ( #57, #146, ( #275 ) ) ;
#6 = ORIENTED_EDGE ( 'NONE', *, *, #68, .T. ) ;
#7 = DATE_AND_TIME ( #25, #265 ) ;
#8 = EDGE_LOOP ( 'NONE', ( #235, #147, #244, #2 ) ) ;
#9 = COORDINATED_UNIVERSAL_TIME_OFFSET ( 1, 0, .AHEAD. ) ;
#10 = ORIENTED_EDGE ( 'NONE', *, *, #279, .F. ) ;
#11 = CARTESIAN_POINT ( 'NONE',  ( 6.000000000000000888, 7.347880794884120722E-16, 5.000000000000000000 ) ) ;
#12 = ORIENTED_EDGE ( 'NONE', *, *, #50, .F. ) ;
#13 = APPROVAL ( #285, 'NEURÈENÝ' ) ;
#14 = ORIENTED_EDGE ( 'NONE', *, *, #71, .T. ) ;
#15 = CARTESIAN_POINT ( 'NONE',  ( -6.000000000000000888, 0.000000000000000000, 5.000000000000000000 ) ) ;
#16 = CYLINDRICAL_SURFACE ( 'NONE', #217, 3.250000000000000444 ) ;
#17 = DIRECTION ( 'NONE',  ( -1.000000000000000000, 0.000000000000000000, 0.000000000000000000 ) ) ;
#18 = AXIS2_PLACEMENT_3D ( 'NONE', #228, #116, #182 ) ;
#19 = DIRECTION ( 'NONE',  ( 1.000000000000000000, 0.000000000000000000, -0.000000000000000000 ) ) ;
#20 = PLANE ( 'NONE',  #81 ) ;
#21 = CARTESIAN_POINT ( 'NONE',  ( 3.250000000000000444, 3.980102097228898231E-16, 5.199999999999982414 ) ) ;
#22 = EDGE_CURVE ( 'NONE', #142, #27, #162, .T. ) ;
#23 = DIRECTION ( 'NONE',  ( 1.000000000000000000, 0.000000000000000000, 0.000000000000000000 ) ) ;
#24 = CIRCLE ( 'NONE', #29, 6.000000000000000888 ) ;
#25 = CALENDAR_DATE ( 2022, 20, 6 ) ;
#26 = VERTEX_POINT ( 'NONE', #38 ) ;
#27 = VERTEX_POINT ( 'NONE', #195 ) ;
#28 = CIRCLE ( 'NONE', #54, 3.450000000000000178 ) ;
#29 = AXIS2_PLACEMENT_3D ( 'NONE', #245, #128, #222 ) ;
#30 = DIRECTION ( 'NONE',  ( 0.000000000000000000, 0.000000000000000000, 1.000000000000000000 ) ) ;
#31 = ORIENTED_EDGE ( 'NONE', *, *, #119, .T. ) ;
#32 = PERSON_AND_ORGANIZATION ( #234, #256 ) ;
#33 = VERTEX_POINT ( 'NONE', #177 ) ;
#34 = DIRECTION ( 'NONE',  ( 0.000000000000000000, 0.000000000000000000, 1.000000000000000000 ) ) ;
#35 = CIRCLE ( 'NONE', #179, 3.250000000000000444 ) ;
#36 = CARTESIAN_POINT ( 'NONE',  ( 0.000000000000000000, 0.000000000000000000, 320.0000000000000000 ) ) ;
#37 = EDGE_CURVE ( 'NONE', #26, #167, #274, .T. ) ;
#38 = CARTESIAN_POINT ( 'NONE',  ( 6.000000000000000888, 7.347880794884120722E-16, 5.000000000000000000 ) ) ;
#39 = PERSON_AND_ORGANIZATION ( #234, #256 ) ;
#40 = ORIENTED_EDGE ( 'NONE', *, *, #159, .F. ) ;
#41 = FACE_OUTER_BOUND ( 'NONE', #8, .T. ) ;
#42 = DIRECTION ( 'NONE',  ( 0.000000000000000000, 0.000000000000000000, -1.000000000000000000 ) ) ;
#43 = SHAPE_DEFINITION_REPRESENTATION ( #297, #45 ) ;
#44 = CIRCLE ( 'NONE', #122, 3.250000000000000444 ) ;
#45 = ADVANCED_BREP_SHAPE_REPRESENTATION ( '8d10', ( #224, #98 ), #149 ) ;
#46 = DIRECTION ( 'NONE',  ( 1.000000000000000000, 0.000000000000000000, 0.000000000000000000 ) ) ;
#47 = DIRECTION ( 'NONE',  ( 0.000000000000000000, 0.000000000000000000, 1.000000000000000000 ) ) ;
#48 = VECTOR ( 'NONE', #252, 1000.000000000000000 ) ;
#49 = ORIENTED_EDGE ( 'NONE', *, *, #37, .F. ) ;
#50 = EDGE_CURVE ( 'NONE', #79, #262, #28, .T. ) ;
#51 = APPLICATION_PROTOCOL_DEFINITION ( 'international standard', 'config_control_design', 1994, #124 ) ;
#52 = EDGE_LOOP ( 'NONE', ( #103, #212 ) ) ;
#53 = ORIENTED_EDGE ( 'NONE', *, *, #50, .T. ) ;
#54 = AXIS2_PLACEMENT_3D ( 'NONE', #64, #293, #86 ) ;
#55 = EDGE_CURVE ( 'NONE', #120, #101, #66, .T. ) ;
#56 = DATE_TIME_ROLE ( 'creation_date' ) ;
#57 = DATE_AND_TIME ( #267, #134 ) ;
#58 = ORIENTED_EDGE ( 'NONE', *, *, #91, .F. ) ;
#59 = APPROVAL_ROLE ( '' ) ;
#60 = DIRECTION ( 'NONE',  ( 0.000000000000000000, 0.000000000000000000, 1.000000000000000000 ) ) ;
#61 = AXIS2_PLACEMENT_3D ( 'NONE', #299, #89, #307 ) ;
#62 = CARTESIAN_POINT ( 'NONE',  ( 3.250000000000000444, 3.980102097228898231E-16, 320.0000000000000000 ) ) ;
#63 = PRODUCT_DEFINITION ( 'NEZNÁMÝ', '', #251, #181 ) ;
#64 = CARTESIAN_POINT ( 'NONE',  ( 0.000000000000000000, 0.000000000000000000, 5.000000000000000000 ) ) ;
#65 = SECURITY_CLASSIFICATION_LEVEL ( 'unclassified' ) ;
#66 = LINE ( 'NONE', #85, #94 ) ;
#67 = CIRCLE ( 'NONE', #18, 6.000000000000000888 ) ;
#68 = EDGE_CURVE ( 'NONE', #207, #33, #249, .T. ) ;
#69 = CARTESIAN_POINT ( 'NONE',  ( 6.000000000000000888, 7.347880794884120722E-16, 0.000000000000000000 ) ) ;
#70 = DIRECTION ( 'NONE',  ( -0.000000000000000000, -0.000000000000000000, -1.000000000000000000 ) ) ;
#71 = EDGE_CURVE ( 'NONE', #33, #262, #163, .T. ) ;
#72 = PRODUCT ( '8d10', '8d10', '', ( #231 ) ) ;
#73 = TOROIDAL_SURFACE ( 'NONE', #192, 3.450000000000000178, 0.2000000000000000111 ) ;
#74 = CARTESIAN_POINT ( 'NONE',  ( -3.450000000000000178, 4.225031457058368824E-16, 4.999999999999991118 ) ) ;
#75 = DIRECTION ( 'NONE',  ( 0.000000000000000000, 0.000000000000000000, 1.000000000000000000 ) ) ;
#76 = DIRECTION ( 'NONE',  ( 1.000000000000000000, 0.000000000000000000, 0.000000000000000000 ) ) ;
#77 = PERSON_AND_ORGANIZATION ( #234, #256 ) ;
#78 = VECTOR ( 'NONE', #70, 1000.000000000000000 ) ;
#79 = VERTEX_POINT ( 'NONE', #292 ) ;
#80 = COORDINATED_UNIVERSAL_TIME_OFFSET ( 1, 0, .AHEAD. ) ;
#81 = AXIS2_PLACEMENT_3D ( 'NONE', #277, #303, #19 ) ;
#82 = ORIENTED_EDGE ( 'NONE', *, *, #55, .F. ) ;
#83 = DIRECTION ( 'NONE',  ( 0.000000000000000000, 0.000000000000000000, 1.000000000000000000 ) ) ;
#84 = PERSON_AND_ORGANIZATION ( #234, #256 ) ;
#85 = CARTESIAN_POINT ( 'NONE',  ( -6.000000000000000888, 0.000000000000000000, 5.000000000000000000 ) ) ;
#86 = DIRECTION ( 'NONE',  ( 1.000000000000000000, 0.000000000000000000, 0.000000000000000000 ) ) ;
#87 = DIRECTION ( 'NONE',  ( -1.000000000000000000, 0.000000000000000000, 0.000000000000000000 ) ) ;
#88 = AXIS2_PLACEMENT_3D ( 'NONE', #112, #178, #304 ) ;
#89 = DIRECTION ( 'NONE',  ( 0.000000000000000000, 0.000000000000000000, 1.000000000000000000 ) ) ;
#90 = DIRECTION ( 'NONE',  ( 1.000000000000000000, 0.000000000000000000, 0.000000000000000000 ) ) ;
#91 = EDGE_CURVE ( 'NONE', #27, #142, #35, .T. ) ;
#92 = LINE ( 'NONE', #229, #78 ) ;
#93 = CALENDAR_DATE ( 2022, 20, 6 ) ;
#94 = VECTOR ( 'NONE', #248, 1000.000000000000000 ) ;
#95 = CIRCLE ( 'NONE', #261, 6.000000000000000888 ) ;
#96 = CARTESIAN_POINT ( 'NONE',  ( 0.000000000000000000, 0.000000000000000000, 5.000000000000000000 ) ) ;
#97 = CARTESIAN_POINT ( 'NONE',  ( 0.000000000000000000, 0.000000000000000000, 320.0000000000000000 ) ) ;
#98 = AXIS2_PLACEMENT_3D ( 'NONE', #187, #30, #76 ) ;
#99 =( NAMED_UNIT ( * ) PLANE_ANGLE_UNIT ( ) SI_UNIT ( $, .RADIAN. ) );
#100 = EDGE_LOOP ( 'NONE', ( #105, #14, #12, #215 ) ) ;
#101 = VERTEX_POINT ( 'NONE', #151 ) ;
#102 = APPROVAL ( #240, 'NEURÈENÝ' ) ;
#103 = ORIENTED_EDGE ( 'NONE', *, *, #22, .T. ) ;
#104 = CC_DESIGN_APPROVAL ( #13, ( #63 ) ) ;
#105 = ORIENTED_EDGE ( 'NONE', *, *, #106, .F. ) ;
#106 = EDGE_CURVE ( 'NONE', #33, #207, #44, .T. ) ;
#107 = COORDINATED_UNIVERSAL_TIME_OFFSET ( 1, 0, .AHEAD. ) ;
#108 = AXIS2_PLACEMENT_3D ( 'NONE', #283, #47, #23 ) ;
#109 = PERSON_AND_ORGANIZATION_ROLE ( 'design_supplier' ) ;
#110 = FACE_OUTER_BOUND ( 'NONE', #52, .T. ) ;
#111 = EDGE_CURVE ( 'NONE', #27, #207, #152, .T. ) ;
#112 = CARTESIAN_POINT ( 'NONE',  ( 0.000000000000000000, 0.000000000000000000, 320.0000000000000000 ) ) ;
#113 = FACE_OUTER_BOUND ( 'NONE', #193, .T. ) ;
#114 = DIRECTION ( 'NONE',  ( 0.000000000000000000, 0.000000000000000000, 1.000000000000000000 ) ) ;
#115 = ADVANCED_FACE ( 'NONE', ( #176 ), #16, .T. ) ;
#116 = DIRECTION ( 'NONE',  ( 0.000000000000000000, 0.000000000000000000, 1.000000000000000000 ) ) ;
#117 = FACE_OUTER_BOUND ( 'NONE', #173, .T. ) ;
#118 = CARTESIAN_POINT ( 'NONE',  ( 0.000000000000000000, 0.000000000000000000, 0.000000000000000000 ) ) ;
#119 = EDGE_CURVE ( 'NONE', #26, #120, #24, .T. ) ;
#120 = VERTEX_POINT ( 'NONE', #15 ) ;
#121 = ADVANCED_FACE ( 'NONE', ( #110 ), #131, .T. ) ;
#122 = AXIS2_PLACEMENT_3D ( 'NONE', #174, #34, #272 ) ;
#123 = APPROVAL_STATUS ( 'not_yet_approved' ) ;
#124 = APPLICATION_CONTEXT ( 'configuration controlled 3d designs of mechanical parts and assemblies' ) ;
#125 = EDGE_LOOP ( 'NONE', ( #49, #218, #171, #232 ) ) ;
#126 = AXIS2_PLACEMENT_3D ( 'NONE', #301, #254, #158 ) ;
#127 = ORIENTED_EDGE ( 'NONE', *, *, #201, .T. ) ;
#128 = DIRECTION ( 'NONE',  ( 0.000000000000000000, 0.000000000000000000, 1.000000000000000000 ) ) ;
#129 = DIRECTION ( 'NONE',  ( -0.000000000000000000, -0.000000000000000000, -1.000000000000000000 ) ) ;
#130 = PERSON_AND_ORGANIZATION_ROLE ( 'classification_officer' ) ;
#131 = PLANE ( 'NONE',  #88 ) ;
#132 = DATE_AND_TIME ( #93, #143 ) ;
#133 = CARTESIAN_POINT ( 'NONE',  ( 0.000000000000000000, 0.000000000000000000, 5.199999999999982414 ) ) ;
#134 = LOCAL_TIME ( 11, 54, 18.00000000000000000, #107 ) ;
#135 = DIRECTION ( 'NONE',  ( 0.000000000000000000, 0.000000000000000000, 1.000000000000000000 ) ) ;
#136 = CARTESIAN_POINT ( 'NONE',  ( 3.450000000000000178, 0.000000000000000000, 5.199999999999982414 ) ) ;
#137 = FACE_OUTER_BOUND ( 'NONE', #239, .T. ) ;
#138 = ADVANCED_FACE ( 'NONE', ( #225 ), #204, .T. ) ;
#139 = AXIS2_PLACEMENT_3D ( 'NONE', #148, #221, #223 ) ;
#140 = CC_DESIGN_PERSON_AND_ORGANIZATION_ASSIGNMENT ( #77, #233, ( #63 ) ) ;
#141 = PERSON_AND_ORGANIZATION ( #234, #256 ) ;
#142 = VERTEX_POINT ( 'NONE', #226 ) ;
#143 = LOCAL_TIME ( 11, 54, 18.00000000000000000, #257 ) ;
#144 = ORIENTED_EDGE ( 'NONE', *, *, #106, .T. ) ;
#145 = ORIENTED_EDGE ( 'NONE', *, *, #227, .T. ) ;
#146 = DATE_TIME_ROLE ( 'classification_date' ) ;
#147 = ORIENTED_EDGE ( 'NONE', *, *, #68, .F. ) ;
#148 = CARTESIAN_POINT ( 'NONE',  ( -3.450000000000000178, 4.225031457058368824E-16, 5.199999999999982414 ) ) ;
#149 =( GEOMETRIC_REPRESENTATION_CONTEXT ( 3 ) GLOBAL_UNCERTAINTY_ASSIGNED_CONTEXT ( ( #302 ) ) GLOBAL_UNIT_ASSIGNED_CONTEXT ( ( #278, #99, #211 ) ) REPRESENTATION_CONTEXT ( 'NONE', 'WORKASPACE' ) );
#150 = DIRECTION ( 'NONE',  ( 1.000000000000000000, 0.000000000000000000, 0.000000000000000000 ) ) ;
#151 = CARTESIAN_POINT ( 'NONE',  ( -6.000000000000000888, 0.000000000000000000, 0.000000000000000000 ) ) ;
#152 = LINE ( 'NONE', #62, #48 ) ;
#153 = AXIS2_PLACEMENT_3D ( 'NONE', #97, #186, #284 ) ;
#154 = DIRECTION ( 'NONE',  ( 0.000000000000000000, -1.000000000000000000, 0.000000000000000000 ) ) ;
#155 = FACE_OUTER_BOUND ( 'NONE', #100, .T. ) ;
#156 = AXIS2_PLACEMENT_3D ( 'NONE', #36, #276, #199 ) ;
#157 = APPROVAL_PERSON_ORGANIZATION ( #32, #306, #214 ) ;
#158 = DIRECTION ( 'NONE',  ( -1.000000000000000000, 0.000000000000000000, 0.000000000000000000 ) ) ;
#159 = EDGE_CURVE ( 'NONE', #101, #167, #95, .T. ) ;
#160 = CYLINDRICAL_SURFACE ( 'NONE', #153, 3.250000000000000444 ) ;
#161 = CALENDAR_DATE ( 2022, 20, 6 ) ;
#162 = CIRCLE ( 'NONE', #156, 3.250000000000000444 ) ;
#163 = CIRCLE ( 'NONE', #139, 0.2000000000000000944 ) ;
#164 = EDGE_LOOP ( 'NONE', ( #53, #3 ) ) ;
#165 = ORIENTED_EDGE ( 'NONE', *, *, #111, .F. ) ;
#166 = ADVANCED_FACE ( 'NONE', ( #255 ), #20, .F. ) ;
#167 = VERTEX_POINT ( 'NONE', #69 ) ;
#168 = CALENDAR_DATE ( 2022, 20, 6 ) ;
#169 = EDGE_LOOP ( 'NONE', ( #165, #268, #238, #144 ) ) ;
#170 = PERSON_AND_ORGANIZATION ( #234, #256 ) ;
#171 = ORIENTED_EDGE ( 'NONE', *, *, #55, .T. ) ;
#172 = PERSON_AND_ORGANIZATION ( #234, #256 ) ;
#173 = EDGE_LOOP ( 'NONE', ( #58, #209, #6, #10 ) ) ;
#174 = CARTESIAN_POINT ( 'NONE',  ( 0.000000000000000000, 0.000000000000000000, 5.199999999999982414 ) ) ;
#175 = AXIS2_PLACEMENT_3D ( 'NONE', #96, #75, #185 ) ;
#176 = FACE_OUTER_BOUND ( 'NONE', #169, .T. ) ;
#177 = CARTESIAN_POINT ( 'NONE',  ( -3.250000000000000444, 0.000000000000000000, 5.199999999999982414 ) ) ;
#178 = DIRECTION ( 'NONE',  ( 0.000000000000000000, 0.000000000000000000, 1.000000000000000000 ) ) ;
#179 = AXIS2_PLACEMENT_3D ( 'NONE', #219, #83, #150 ) ;
#180 = PLANE ( 'NONE',  #175 ) ;
#181 = DESIGN_CONTEXT ( 'detailed design', #124, 'design' ) ;
#182 = DIRECTION ( 'NONE',  ( 1.000000000000000000, 0.000000000000000000, 0.000000000000000000 ) ) ;
#183 = ADVANCED_FACE ( 'NONE', ( #258, #137 ), #180, .T. ) ;
#184 = CC_DESIGN_SECURITY_CLASSIFICATION ( #275, ( #251 ) ) ;
#185 = DIRECTION ( 'NONE',  ( 1.000000000000000000, 0.000000000000000000, -0.000000000000000000 ) ) ;
#186 = DIRECTION ( 'NONE',  ( -0.000000000000000000, -0.000000000000000000, -1.000000000000000000 ) ) ;
#187 = CARTESIAN_POINT ( 'NONE',  ( 0.000000000000000000, 0.000000000000000000, 0.000000000000000000 ) ) ;
#188 = CIRCLE ( 'NONE', #108, 6.000000000000000888 ) ;
#189 = APPLICATION_PROTOCOL_DEFINITION ( 'international standard', 'config_control_design', 1994, #291 ) ;
#190 = APPROVAL_DATE_TIME ( #7, #13 ) ;
#191 = CC_DESIGN_PERSON_AND_ORGANIZATION_ASSIGNMENT ( #263, #206, ( #72 ) ) ;
#192 = AXIS2_PLACEMENT_3D ( 'NONE', #133, #114, #90 ) ;
#193 = EDGE_LOOP ( 'NONE', ( #197, #269, #145, #82 ) ) ;
#194 = CC_DESIGN_PERSON_AND_ORGANIZATION_ASSIGNMENT ( #170, #130, ( #275 ) ) ;
#195 = CARTESIAN_POINT ( 'NONE',  ( 3.250000000000000444, 3.980102097228898231E-16, 320.0000000000000000 ) ) ;
#196 = EDGE_LOOP ( 'NONE', ( #40, #286 ) ) ;
#197 = ORIENTED_EDGE ( 'NONE', *, *, #119, .F. ) ;
#198 = CC_DESIGN_APPROVAL ( #102, ( #275 ) ) ;
#199 = DIRECTION ( 'NONE',  ( 1.000000000000000000, 0.000000000000000000, 0.000000000000000000 ) ) ;
#200 = CARTESIAN_POINT ( 'NONE',  ( 0.000000000000000000, 0.000000000000000000, 5.199999999999982414 ) ) ;
#201 = EDGE_CURVE ( 'NONE', #120, #26, #188, .T. ) ;
#202 = CIRCLE ( 'NONE', #210, 0.1999999999999996503 ) ;
#203 = CARTESIAN_POINT ( 'NONE',  ( 0.000000000000000000, 0.000000000000000000, 5.000000000000000000 ) ) ;
#204 = CYLINDRICAL_SURFACE ( 'NONE', #236, 6.000000000000000888 ) ;
#205 = DIRECTION ( 'NONE',  ( 1.000000000000000000, 0.000000000000000000, 0.000000000000000000 ) ) ;
#206 = PERSON_AND_ORGANIZATION_ROLE ( 'design_owner' ) ;
#207 = VERTEX_POINT ( 'NONE', #21 ) ;
#208 = ADVANCED_FACE ( 'NONE', ( #155 ), #290, .F. ) ;
#209 = ORIENTED_EDGE ( 'NONE', *, *, #111, .T. ) ;
#210 = AXIS2_PLACEMENT_3D ( 'NONE', #136, #154, #42 ) ;
#211 =( NAMED_UNIT ( * ) SI_UNIT ( $, .STERADIAN. ) SOLID_ANGLE_UNIT ( ) );
#212 = ORIENTED_EDGE ( 'NONE', *, *, #91, .T. ) ;
#213 = ADVANCED_FACE ( 'NONE', ( #113 ), #280, .T. ) ;
#214 = APPROVAL_ROLE ( '' ) ;
#215 = ORIENTED_EDGE ( 'NONE', *, *, #270, .F. ) ;
#216 = PRODUCT_RELATED_PRODUCT_CATEGORY ( 'detail', '', ( #72 ) ) ;
#217 = AXIS2_PLACEMENT_3D ( 'NONE', #296, #129, #87 ) ;
#218 = ORIENTED_EDGE ( 'NONE', *, *, #201, .F. ) ;
#219 = CARTESIAN_POINT ( 'NONE',  ( 0.000000000000000000, 0.000000000000000000, 320.0000000000000000 ) ) ;
#220 = ADVANCED_FACE ( 'NONE', ( #117 ), #160, .T. ) ;
#221 = DIRECTION ( 'NONE',  ( 1.224646799147353207E-16, 1.000000000000000000, -0.000000000000000000 ) ) ;
#222 = DIRECTION ( 'NONE',  ( 1.000000000000000000, 0.000000000000000000, 0.000000000000000000 ) ) ;
#223 = DIRECTION ( 'NONE',  ( -1.000000000000000000, 1.224646799147350742E-16, 0.000000000000000000 ) ) ;
#224 = MANIFOLD_SOLID_BREP ( 'Zaoblit1', #264 ) ;
#225 = FACE_OUTER_BOUND ( 'NONE', #125, .T. ) ;
#226 = CARTESIAN_POINT ( 'NONE',  ( -3.250000000000000444, 0.000000000000000000, 320.0000000000000000 ) ) ;
#227 = EDGE_CURVE ( 'NONE', #167, #101, #67, .T. ) ;
#228 = CARTESIAN_POINT ( 'NONE',  ( 0.000000000000000000, 0.000000000000000000, 0.000000000000000000 ) ) ;
#229 = CARTESIAN_POINT ( 'NONE',  ( -3.250000000000000444, 0.000000000000000000, 320.0000000000000000 ) ) ;
#230 = DIRECTION ( 'NONE',  ( -0.000000000000000000, -0.000000000000000000, -1.000000000000000000 ) ) ;
#231 = MECHANICAL_CONTEXT ( 'NONE', #291, 'mechanical' ) ;
#232 = ORIENTED_EDGE ( 'NONE', *, *, #159, .T. ) ;
#233 = PERSON_AND_ORGANIZATION_ROLE ( 'creator' ) ;
#234 = PERSON ( 'NEURÈENÝ', 'NEURÈENÝ', 'NEURÈENÝ', ('NEURÈENÝ'), ('NEURÈENÝ'), ('NEURÈENÝ') ) ;
#235 = ORIENTED_EDGE ( 'NONE', *, *, #71, .F. ) ;
#236 = AXIS2_PLACEMENT_3D ( 'NONE', #259, #230, #17 ) ;
#237 = COORDINATED_UNIVERSAL_TIME_OFFSET ( 1, 0, .AHEAD. ) ;
#238 = ORIENTED_EDGE ( 'NONE', *, *, #279, .T. ) ;
#239 = EDGE_LOOP ( 'NONE', ( #127, #31 ) ) ;
#240 = APPROVAL_STATUS ( 'not_yet_approved' ) ;
#241 = DIRECTION ( 'NONE',  ( 1.000000000000000000, 0.000000000000000000, 0.000000000000000000 ) ) ;
#242 = VECTOR ( 'NONE', #295, 1000.000000000000000 ) ;
#243 = LOCAL_TIME ( 11, 54, 18.00000000000000000, #9 ) ;
#244 = ORIENTED_EDGE ( 'NONE', *, *, #270, .T. ) ;
#245 = CARTESIAN_POINT ( 'NONE',  ( 0.000000000000000000, 0.000000000000000000, 5.000000000000000000 ) ) ;
#246 = CC_DESIGN_PERSON_AND_ORGANIZATION_ASSIGNMENT ( #39, #109, ( #251 ) ) ;
#247 = PERSON_AND_ORGANIZATION_ROLE ( 'creator' ) ;
#248 = DIRECTION ( 'NONE',  ( -0.000000000000000000, -0.000000000000000000, -1.000000000000000000 ) ) ;
#249 = CIRCLE ( 'NONE', #305, 3.250000000000000444 ) ;
#250 = CC_DESIGN_PERSON_AND_ORGANIZATION_ASSIGNMENT ( #84, #247, ( #251 ) ) ;
#251 = PRODUCT_DEFINITION_FORMATION_WITH_SPECIFIED_SOURCE ( 'LIBOVOLNÝ', '', #72, .NOT_KNOWN. ) ;
#252 = DIRECTION ( 'NONE',  ( -0.000000000000000000, -0.000000000000000000, -1.000000000000000000 ) ) ;
#253 = DIRECTION ( 'NONE',  ( -0.000000000000000000, -0.000000000000000000, -1.000000000000000000 ) ) ;
#254 = DIRECTION ( 'NONE',  ( -0.000000000000000000, -0.000000000000000000, -1.000000000000000000 ) ) ;
#255 = FACE_OUTER_BOUND ( 'NONE', #196, .T. ) ;
#256 = ORGANIZATION ( 'NEURÈENÝ', 'NEURÈENÝ', '' ) ;
#257 = COORDINATED_UNIVERSAL_TIME_OFFSET ( 1, 0, .AHEAD. ) ;
#258 = FACE_BOUND ( 'NONE', #164, .T. ) ;
#259 = CARTESIAN_POINT ( 'NONE',  ( 0.000000000000000000, 0.000000000000000000, 5.000000000000000000 ) ) ;
#260 = DATE_AND_TIME ( #161, #243 ) ;
#261 = AXIS2_PLACEMENT_3D ( 'NONE', #118, #135, #205 ) ;
#262 = VERTEX_POINT ( 'NONE', #74 ) ;
#263 = PERSON_AND_ORGANIZATION ( #234, #256 ) ;
#264 = CLOSED_SHELL ( 'NONE', ( #208, #220, #213, #138, #183, #166, #115, #121, #300 ) ) ;
#265 = LOCAL_TIME ( 11, 54, 18.00000000000000000, #237 ) ;
#266 = DATE_AND_TIME ( #168, #294 ) ;
#267 = CALENDAR_DATE ( 2022, 20, 6 ) ;
#268 = ORIENTED_EDGE ( 'NONE', *, *, #22, .F. ) ;
#269 = ORIENTED_EDGE ( 'NONE', *, *, #37, .T. ) ;
#270 = EDGE_CURVE ( 'NONE', #207, #79, #202, .T. ) ;
#271 = APPROVAL_PERSON_ORGANIZATION ( #141, #13, #289 ) ;
#272 = DIRECTION ( 'NONE',  ( 1.000000000000000000, 0.000000000000000000, 0.000000000000000000 ) ) ;
#273 = EDGE_CURVE ( 'NONE', #262, #79, #287, .T. ) ;
#274 = LINE ( 'NONE', #11, #242 ) ;
#275 = SECURITY_CLASSIFICATION ( '', '', #65 ) ;
#276 = DIRECTION ( 'NONE',  ( 0.000000000000000000, 0.000000000000000000, 1.000000000000000000 ) ) ;
#277 = CARTESIAN_POINT ( 'NONE',  ( 0.000000000000000000, 0.000000000000000000, 0.000000000000000000 ) ) ;
#278 =( LENGTH_UNIT ( ) NAMED_UNIT ( * ) SI_UNIT ( .MILLI., .METRE. ) );
#279 = EDGE_CURVE ( 'NONE', #142, #33, #92, .T. ) ;
#280 = CYLINDRICAL_SURFACE ( 'NONE', #126, 6.000000000000000888 ) ;
#281 = CC_DESIGN_APPROVAL ( #306, ( #251 ) ) ;
#282 = APPROVAL_DATE_TIME ( #132, #102 ) ;
#283 = CARTESIAN_POINT ( 'NONE',  ( 0.000000000000000000, 0.000000000000000000, 5.000000000000000000 ) ) ;
#284 = DIRECTION ( 'NONE',  ( -1.000000000000000000, 0.000000000000000000, 0.000000000000000000 ) ) ;
#285 = APPROVAL_STATUS ( 'not_yet_approved' ) ;
#286 = ORIENTED_EDGE ( 'NONE', *, *, #227, .F. ) ;
#287 = CIRCLE ( 'NONE', #298, 3.450000000000000178 ) ;
#288 = CC_DESIGN_DATE_AND_TIME_ASSIGNMENT ( #266, #56, ( #63 ) ) ;
#289 = APPROVAL_ROLE ( '' ) ;
#290 = TOROIDAL_SURFACE ( 'NONE', #61, 3.450000000000000178, 0.2000000000000000111 ) ;
#291 = APPLICATION_CONTEXT ( 'configuration controlled 3d designs of mechanical parts and assemblies' ) ;
#292 = CARTESIAN_POINT ( 'NONE',  ( 3.450000000000000178, 0.000000000000000000, 4.999999999999991118 ) ) ;
#293 = DIRECTION ( 'NONE',  ( -0.000000000000000000, -0.000000000000000000, -1.000000000000000000 ) ) ;
#294 = LOCAL_TIME ( 11, 54, 18.00000000000000000, #80 ) ;
#295 = DIRECTION ( 'NONE',  ( -0.000000000000000000, -0.000000000000000000, -1.000000000000000000 ) ) ;
#296 = CARTESIAN_POINT ( 'NONE',  ( 0.000000000000000000, 0.000000000000000000, 320.0000000000000000 ) ) ;
#297 = PRODUCT_DEFINITION_SHAPE ( 'NONE', 'NONE',  #63 ) ;
#298 = AXIS2_PLACEMENT_3D ( 'NONE', #203, #253, #46 ) ;
#299 = CARTESIAN_POINT ( 'NONE',  ( 0.000000000000000000, 0.000000000000000000, 5.199999999999982414 ) ) ;
#300 = ADVANCED_FACE ( 'NONE', ( #41 ), #73, .F. ) ;
#301 = CARTESIAN_POINT ( 'NONE',  ( 0.000000000000000000, 0.000000000000000000, 5.000000000000000000 ) ) ;
#302 = UNCERTAINTY_MEASURE_WITH_UNIT (LENGTH_MEASURE( 1.000000000000000082E-05 ), #278, 'distance_accuracy_value', 'NONE');
#303 = DIRECTION ( 'NONE',  ( 0.000000000000000000, 0.000000000000000000, 1.000000000000000000 ) ) ;
#304 = DIRECTION ( 'NONE',  ( 1.000000000000000000, 0.000000000000000000, -0.000000000000000000 ) ) ;
#305 = AXIS2_PLACEMENT_3D ( 'NONE', #200, #60, #241 ) ;
#306 = APPROVAL ( #123, 'NEURÈENÝ' ) ;
#307 = DIRECTION ( 'NONE',  ( 1.000000000000000000, 0.000000000000000000, 0.000000000000000000 ) ) ;
ENDSEC;
END-ISO-10303-21;
