ISO-10303-21;
HEADER;
FILE_DESCRIPTION (( 'STEP AP203' ),
    '1' );
FILE_NAME ('6ae7.STEP',
    '2022-06-20T09:23:24',
    ( '' ),
    ( '' ),
    'SwSTEP 2.0',
    'SolidWorks 2019',
    '' );
FILE_SCHEMA (( 'CONFIG_CONTROL_DESIGN' ));
ENDSEC;

DATA;
#1 = CALENDAR_DATE ( 2022, 20, 6 ) ;
#2 = CLOSED_SHELL ( 'NONE', ( #253, #139, #221, #231, #174, #198, #18, #293, #60 ) ) ;
#3 = APPROVAL_STATUS ( 'not_yet_approved' ) ;
#4 = EDGE_LOOP ( 'NONE', ( #200, #90 ) ) ;
#5 = DATE_TIME_ROLE ( 'creation_date' ) ;
#6 = EDGE_LOOP ( 'NONE', ( #127, #270 ) ) ;
#7 = ORIENTED_EDGE ( 'NONE', *, *, #67, .F. ) ;
#8 = EDGE_CURVE ( 'NONE', #201, #19, #205, .T. ) ;
#9 = PLANE ( 'NONE',  #204 ) ;
#10 = CARTESIAN_POINT ( 'NONE',  ( 8.200000000000001066, 0.000000000000000000, 7.199999999999984190 ) ) ;
#11 = CARTESIAN_POINT ( 'NONE',  ( 11.00000000000000000, 1.347111479062088405E-15, 7.000000000000000000 ) ) ;
#12 = AXIS2_PLACEMENT_3D ( 'NONE', #260, #193, #20 ) ;
#13 = FACE_OUTER_BOUND ( 'NONE', #266, .T. ) ;
#14 = AXIS2_PLACEMENT_3D ( 'NONE', #122, #217, #168 ) ;
#15 = PRODUCT_DEFINITION ( 'NEZNÁMÝ', '', #278, #295 ) ;
#16 = EDGE_LOOP ( 'NONE', ( #164, #284 ) ) ;
#17 = CARTESIAN_POINT ( 'NONE',  ( 0.000000000000000000, 0.000000000000000000, 637.0000000000000000 ) ) ;
#18 = ADVANCED_FACE ( 'NONE', ( #274 ), #55, .T. ) ;
#19 = VERTEX_POINT ( 'NONE', #29 ) ;
#20 = DIRECTION ( 'NONE',  ( 1.000000000000000000, 0.000000000000000000, 0.000000000000000000 ) ) ;
#21 = CARTESIAN_POINT ( 'NONE',  ( 0.000000000000000000, 0.000000000000000000, 7.000000000000000000 ) ) ;
#22 = AXIS2_PLACEMENT_3D ( 'NONE', #285, #244, #23 ) ;
#23 = DIRECTION ( 'NONE',  ( 1.000000000000000000, 0.000000000000000000, 0.000000000000000000 ) ) ;
#24 = PERSON_AND_ORGANIZATION ( #220, #226 ) ;
#25 = PERSON_AND_ORGANIZATION_ROLE ( 'classification_officer' ) ;
#26 = VERTEX_POINT ( 'NONE', #298 ) ;
#27 = AXIS2_PLACEMENT_3D ( 'NONE', #183, #276, #206 ) ;
#28 = CC_DESIGN_PERSON_AND_ORGANIZATION_ASSIGNMENT ( #24, #75, ( #15 ) ) ;
#29 = CARTESIAN_POINT ( 'NONE',  ( 11.00000000000000000, 1.347111479062088405E-15, 0.000000000000000000 ) ) ;
#30 = CIRCLE ( 'NONE', #210, 11.00000000000000000 ) ;
#31 = MANIFOLD_SOLID_BREP ( 'Zaoblit1', #2 ) ;
#32 = SHAPE_DEFINITION_REPRESENTATION ( #112, #160 ) ;
#33 = DIRECTION ( 'NONE',  ( 0.000000000000000000, 0.000000000000000000, 1.000000000000000000 ) ) ;
#34 = VECTOR ( 'NONE', #265, 1000.000000000000000 ) ;
#35 = CARTESIAN_POINT ( 'NONE',  ( -8.200000000000001066, 1.004210375300829674E-15, 7.199999999999984190 ) ) ;
#36 = EDGE_CURVE ( 'NONE', #287, #197, #149, .T. ) ;
#37 = DIRECTION ( 'NONE',  ( -0.000000000000000000, -0.000000000000000000, -1.000000000000000000 ) ) ;
#38 = APPLICATION_CONTEXT ( 'configuration controlled 3d designs of mechanical parts and assemblies' ) ;
#39 = LINE ( 'NONE', #258, #300 ) ;
#40 = APPROVAL ( #3, 'NEURÈENÝ' ) ;
#41 = CIRCLE ( 'NONE', #76, 8.000000000000000000 ) ;
#42 = CARTESIAN_POINT ( 'NONE',  ( 0.000000000000000000, 0.000000000000000000, 7.000000000000000000 ) ) ;
#43 = EDGE_CURVE ( 'NONE', #26, #287, #39, .T. ) ;
#44 = ORIENTED_EDGE ( 'NONE', *, *, #140, .T. ) ;
#45 =( LENGTH_UNIT ( ) NAMED_UNIT ( * ) SI_UNIT ( .MILLI., .METRE. ) );
#46 = DIRECTION ( 'NONE',  ( 0.000000000000000000, 0.000000000000000000, 1.000000000000000000 ) ) ;
#47 = EDGE_LOOP ( 'NONE', ( #301, #213, #245, #227 ) ) ;
#48 = FACE_OUTER_BOUND ( 'NONE', #141, .T. ) ;
#49 = EDGE_LOOP ( 'NONE', ( #242, #44, #306, #95 ) ) ;
#50 = PERSON_AND_ORGANIZATION_ROLE ( 'design_owner' ) ;
#51 = APPROVAL_DATE_TIME ( #203, #40 ) ;
#52 = ORIENTED_EDGE ( 'NONE', *, *, #239, .T. ) ;
#53 = PERSON_AND_ORGANIZATION ( #220, #226 ) ;
#54 = CC_DESIGN_APPROVAL ( #187, ( #278 ) ) ;
#55 = CYLINDRICAL_SURFACE ( 'NONE', #191, 8.000000000000000000 ) ;
#56 = VECTOR ( 'NONE', #176, 1000.000000000000000 ) ;
#57 = DIRECTION ( 'NONE',  ( -0.000000000000000000, -0.000000000000000000, -1.000000000000000000 ) ) ;
#58 = VECTOR ( 'NONE', #86, 1000.000000000000000 ) ;
#59 = CARTESIAN_POINT ( 'NONE',  ( 0.000000000000000000, 0.000000000000000000, 0.000000000000000000 ) ) ;
#60 = ADVANCED_FACE ( 'NONE', ( #13 ), #252, .F. ) ;
#61 = DIRECTION ( 'NONE',  ( 1.224646799147353207E-16, 1.000000000000000000, -0.000000000000000000 ) ) ;
#62 = DIRECTION ( 'NONE',  ( 1.000000000000000000, 0.000000000000000000, 0.000000000000000000 ) ) ;
#63 = APPROVAL_STATUS ( 'not_yet_approved' ) ;
#64 = EDGE_LOOP ( 'NONE', ( #224, #125 ) ) ;
#65 = PERSON_AND_ORGANIZATION ( #220, #226 ) ;
#66 = PERSON_AND_ORGANIZATION_ROLE ( 'design_supplier' ) ;
#67 = EDGE_CURVE ( 'NONE', #93, #201, #68, .T. ) ;
#68 = CIRCLE ( 'NONE', #234, 11.00000000000000000 ) ;
#69 = COORDINATED_UNIVERSAL_TIME_OFFSET ( 1, 0, .AHEAD. ) ;
#70 = ORIENTED_EDGE ( 'NONE', *, *, #107, .T. ) ;
#71 = TOROIDAL_SURFACE ( 'NONE', #12, 8.200000000000001066, 0.2000000000000000111 ) ;
#72 = LOCAL_TIME ( 11, 23, 24.00000000000000000, #229 ) ;
#73 = PRODUCT_RELATED_PRODUCT_CATEGORY ( 'detail', '', ( #104 ) ) ;
#74 = PERSON_AND_ORGANIZATION_ROLE ( 'creator' ) ;
#75 = PERSON_AND_ORGANIZATION_ROLE ( 'creator' ) ;
#76 = AXIS2_PLACEMENT_3D ( 'NONE', #159, #259, #238 ) ;
#77 = COORDINATED_UNIVERSAL_TIME_OFFSET ( 1, 0, .AHEAD. ) ;
#78 = CARTESIAN_POINT ( 'NONE',  ( 11.00000000000000000, 1.347111479062088405E-15, 7.000000000000000000 ) ) ;
#79 = UNCERTAINTY_MEASURE_WITH_UNIT (LENGTH_MEASURE( 1.000000000000000082E-05 ), #45, 'distance_accuracy_value', 'NONE');
#80 = DIRECTION ( 'NONE',  ( -1.000000000000000000, 0.000000000000000000, 0.000000000000000000 ) ) ;
#81 = EDGE_CURVE ( 'NONE', #99, #305, #116, .T. ) ;
#82 = DIRECTION ( 'NONE',  ( 1.000000000000000000, 0.000000000000000000, 0.000000000000000000 ) ) ;
#83 = AXIS2_PLACEMENT_3D ( 'NONE', #42, #37, #82 ) ;
#84 = CARTESIAN_POINT ( 'NONE',  ( 0.000000000000000000, 0.000000000000000000, 7.199999999999984190 ) ) ;
#85 = CARTESIAN_POINT ( 'NONE',  ( 0.000000000000000000, 0.000000000000000000, 7.000000000000000000 ) ) ;
#86 = DIRECTION ( 'NONE',  ( -0.000000000000000000, -0.000000000000000000, -1.000000000000000000 ) ) ;
#87 = LOCAL_TIME ( 11, 23, 24.00000000000000000, #77 ) ;
#88 = EDGE_LOOP ( 'NONE', ( #119, #7, #52, #263 ) ) ;
#89 = CALENDAR_DATE ( 2022, 20, 6 ) ;
#90 = ORIENTED_EDGE ( 'NONE', *, *, #81, .T. ) ;
#91 = CARTESIAN_POINT ( 'NONE',  ( -11.00000000000000000, 0.000000000000000000, 7.000000000000000000 ) ) ;
#92 = EDGE_CURVE ( 'NONE', #192, #26, #167, .T. ) ;
#93 = VERTEX_POINT ( 'NONE', #130 ) ;
#94 = CARTESIAN_POINT ( 'NONE',  ( -8.000000000000000000, 0.000000000000000000, 7.199999999999984190 ) ) ;
#95 = ORIENTED_EDGE ( 'NONE', *, *, #43, .F. ) ;
#96 = MECHANICAL_CONTEXT ( 'NONE', #199, 'mechanical' ) ;
#97 = AXIS2_PLACEMENT_3D ( 'NONE', #115, #46, #143 ) ;
#98 = PERSON_AND_ORGANIZATION ( #220, #226 ) ;
#99 = VERTEX_POINT ( 'NONE', #184 ) ;
#100 = AXIS2_PLACEMENT_3D ( 'NONE', #264, #303, #261 ) ;
#101 = CC_DESIGN_SECURITY_CLASSIFICATION ( #222, ( #278 ) ) ;
#102 = CARTESIAN_POINT ( 'NONE',  ( 0.000000000000000000, 0.000000000000000000, 637.0000000000000000 ) ) ;
#103 = APPROVAL_DATE_TIME ( #271, #187 ) ;
#104 = PRODUCT ( '6ae7', '6ae7', '', ( #96 ) ) ;
#105 = ORIENTED_EDGE ( 'NONE', *, *, #275, .T. ) ;
#106 = CIRCLE ( 'NONE', #172, 0.1999999999999996503 ) ;
#107 = EDGE_CURVE ( 'NONE', #287, #99, #134, .T. ) ;
#108 = CYLINDRICAL_SURFACE ( 'NONE', #302, 8.000000000000000000 ) ;
#109 = DIRECTION ( 'NONE',  ( 0.000000000000000000, -1.000000000000000000, 0.000000000000000000 ) ) ;
#110 = CARTESIAN_POINT ( 'NONE',  ( 0.000000000000000000, 0.000000000000000000, 637.0000000000000000 ) ) ;
#111 = DIRECTION ( 'NONE',  ( 1.000000000000000000, 0.000000000000000000, 0.000000000000000000 ) ) ;
#112 = PRODUCT_DEFINITION_SHAPE ( 'NONE', 'NONE',  #15 ) ;
#113 = ORIENTED_EDGE ( 'NONE', *, *, #117, .F. ) ;
#114 = DIRECTION ( 'NONE',  ( 0.000000000000000000, 0.000000000000000000, 1.000000000000000000 ) ) ;
#115 = CARTESIAN_POINT ( 'NONE',  ( 0.000000000000000000, 0.000000000000000000, 637.0000000000000000 ) ) ;
#116 = CIRCLE ( 'NONE', #241, 8.200000000000001066 ) ;
#117 = EDGE_CURVE ( 'NONE', #197, #287, #41, .T. ) ;
#118 = DIRECTION ( 'NONE',  ( -0.000000000000000000, -0.000000000000000000, -1.000000000000000000 ) ) ;
#119 = ORIENTED_EDGE ( 'NONE', *, *, #8, .F. ) ;
#120 =( NAMED_UNIT ( * ) SI_UNIT ( $, .STERADIAN. ) SOLID_ANGLE_UNIT ( ) );
#121 = CIRCLE ( 'NONE', #83, 8.200000000000001066 ) ;
#122 = CARTESIAN_POINT ( 'NONE',  ( 0.000000000000000000, 0.000000000000000000, 0.000000000000000000 ) ) ;
#123 = LOCAL_TIME ( 11, 23, 24.00000000000000000, #291 ) ;
#124 = DATE_AND_TIME ( #250, #123 ) ;
#125 = ORIENTED_EDGE ( 'NONE', *, *, #275, .F. ) ;
#126 = APPROVAL_PERSON_ORGANIZATION ( #175, #40, #273 ) ;
#127 = ORIENTED_EDGE ( 'NONE', *, *, #67, .T. ) ;
#128 = DATE_TIME_ROLE ( 'classification_date' ) ;
#129 = EDGE_CURVE ( 'NONE', #305, #99, #121, .T. ) ;
#130 = CARTESIAN_POINT ( 'NONE',  ( -11.00000000000000000, 0.000000000000000000, 7.000000000000000000 ) ) ;
#131 = CC_DESIGN_APPROVAL ( #40, ( #222 ) ) ;
#132 = CARTESIAN_POINT ( 'NONE',  ( -11.00000000000000000, 0.000000000000000000, 0.000000000000000000 ) ) ;
#133 = DIRECTION ( 'NONE',  ( -0.000000000000000000, -0.000000000000000000, -1.000000000000000000 ) ) ;
#134 = CIRCLE ( 'NONE', #249, 0.2000000000000005107 ) ;
#135 = CARTESIAN_POINT ( 'NONE',  ( 0.000000000000000000, 0.000000000000000000, 7.000000000000000000 ) ) ;
#136 = DIRECTION ( 'NONE',  ( 1.000000000000000000, 0.000000000000000000, 0.000000000000000000 ) ) ;
#137 = VERTEX_POINT ( 'NONE', #132 ) ;
#138 = APPROVAL_ROLE ( '' ) ;
#139 = ADVANCED_FACE ( 'NONE', ( #235 ), #108, .T. ) ;
#140 = EDGE_CURVE ( 'NONE', #192, #197, #212, .T. ) ;
#141 = EDGE_LOOP ( 'NONE', ( #288, #70, #281, #188 ) ) ;
#142 = CARTESIAN_POINT ( 'NONE',  ( 0.000000000000000000, 0.000000000000000000, 0.000000000000000000 ) ) ;
#143 = DIRECTION ( 'NONE',  ( 1.000000000000000000, 0.000000000000000000, -0.000000000000000000 ) ) ;
#144 = CYLINDRICAL_SURFACE ( 'NONE', #283, 11.00000000000000000 ) ;
#145 = APPROVAL_DATE_TIME ( #186, #154 ) ;
#146 = APPROVAL_PERSON_ORGANIZATION ( #98, #154, #138 ) ;
#147 = EDGE_CURVE ( 'NONE', #201, #93, #30, .T. ) ;
#148 = PERSON_AND_ORGANIZATION ( #220, #226 ) ;
#149 = CIRCLE ( 'NONE', #267, 8.000000000000000000 ) ;
#150 = DATE_AND_TIME ( #171, #87 ) ;
#151 =( GEOMETRIC_REPRESENTATION_CONTEXT ( 3 ) GLOBAL_UNCERTAINTY_ASSIGNED_CONTEXT ( ( #79 ) ) GLOBAL_UNIT_ASSIGNED_CONTEXT ( ( #45, #214, #120 ) ) REPRESENTATION_CONTEXT ( 'NONE', 'WORKASPACE' ) );
#152 = SECURITY_CLASSIFICATION_LEVEL ( 'unclassified' ) ;
#153 = FACE_BOUND ( 'NONE', #4, .T. ) ;
#154 = APPROVAL ( #63, 'NEURÈENÝ' ) ;
#155 = AXIS2_PLACEMENT_3D ( 'NONE', #84, #280, #136 ) ;
#156 = CIRCLE ( 'NONE', #22, 11.00000000000000000 ) ;
#157 = CC_DESIGN_APPROVAL ( #154, ( #15 ) ) ;
#158 = DIRECTION ( 'NONE',  ( 0.000000000000000000, 0.000000000000000000, 1.000000000000000000 ) ) ;
#159 = CARTESIAN_POINT ( 'NONE',  ( 0.000000000000000000, 0.000000000000000000, 7.199999999999984190 ) ) ;
#160 = ADVANCED_BREP_SHAPE_REPRESENTATION ( '6ae7', ( #31, #14 ), #151 ) ;
#161 = DIRECTION ( 'NONE',  ( -0.000000000000000000, -0.000000000000000000, -1.000000000000000000 ) ) ;
#162 = CIRCLE ( 'NONE', #179, 8.000000000000000000 ) ;
#163 = LOCAL_TIME ( 11, 23, 24.00000000000000000, #240 ) ;
#164 = ORIENTED_EDGE ( 'NONE', *, *, #208, .T. ) ;
#165 = DIRECTION ( 'NONE',  ( -1.000000000000000000, 0.000000000000000000, 0.000000000000000000 ) ) ;
#166 = FACE_OUTER_BOUND ( 'NONE', #272, .T. ) ;
#167 = CIRCLE ( 'NONE', #27, 8.000000000000000000 ) ;
#168 = DIRECTION ( 'NONE',  ( 1.000000000000000000, 0.000000000000000000, 0.000000000000000000 ) ) ;
#169 = ORIENTED_EDGE ( 'NONE', *, *, #8, .T. ) ;
#170 = CYLINDRICAL_SURFACE ( 'NONE', #100, 11.00000000000000000 ) ;
#171 = CALENDAR_DATE ( 2022, 20, 6 ) ;
#172 = AXIS2_PLACEMENT_3D ( 'NONE', #10, #109, #207 ) ;
#173 = DIRECTION ( 'NONE',  ( -0.000000000000000000, -0.000000000000000000, -1.000000000000000000 ) ) ;
#174 = ADVANCED_FACE ( 'NONE', ( #153, #251 ), #9, .T. ) ;
#175 = PERSON_AND_ORGANIZATION ( #220, #226 ) ;
#176 = DIRECTION ( 'NONE',  ( -0.000000000000000000, -0.000000000000000000, -1.000000000000000000 ) ) ;
#177 = APPROVAL_ROLE ( '' ) ;
#178 = ORIENTED_EDGE ( 'NONE', *, *, #147, .F. ) ;
#179 = AXIS2_PLACEMENT_3D ( 'NONE', #110, #209, #297 ) ;
#180 = CC_DESIGN_PERSON_AND_ORGANIZATION_ASSIGNMENT ( #53, #66, ( #278 ) ) ;
#181 = CARTESIAN_POINT ( 'NONE',  ( 0.000000000000000000, 0.000000000000000000, 7.000000000000000000 ) ) ;
#182 = FACE_OUTER_BOUND ( 'NONE', #64, .T. ) ;
#183 = CARTESIAN_POINT ( 'NONE',  ( 0.000000000000000000, 0.000000000000000000, 637.0000000000000000 ) ) ;
#184 = CARTESIAN_POINT ( 'NONE',  ( -8.200000000000001066, 1.004210375300829674E-15, 6.999999999999992006 ) ) ;
#185 = DIRECTION ( 'NONE',  ( 0.000000000000000000, 0.000000000000000000, 1.000000000000000000 ) ) ;
#186 = DATE_AND_TIME ( #89, #163 ) ;
#187 = APPROVAL ( #195, 'NEURÈENÝ' ) ;
#188 = ORIENTED_EDGE ( 'NONE', *, *, #196, .F. ) ;
#189 = DIRECTION ( 'NONE',  ( 1.000000000000000000, 0.000000000000000000, 0.000000000000000000 ) ) ;
#190 = FACE_OUTER_BOUND ( 'NONE', #16, .T. ) ;
#191 = AXIS2_PLACEMENT_3D ( 'NONE', #102, #173, #248 ) ;
#192 = VERTEX_POINT ( 'NONE', #230 ) ;
#193 = DIRECTION ( 'NONE',  ( 0.000000000000000000, 0.000000000000000000, 1.000000000000000000 ) ) ;
#194 = PLANE ( 'NONE',  #97 ) ;
#195 = APPROVAL_STATUS ( 'not_yet_approved' ) ;
#196 = EDGE_CURVE ( 'NONE', #197, #305, #106, .T. ) ;
#197 = VERTEX_POINT ( 'NONE', #296 ) ;
#198 = ADVANCED_FACE ( 'NONE', ( #182 ), #277, .F. ) ;
#199 = APPLICATION_CONTEXT ( 'configuration controlled 3d designs of mechanical parts and assemblies' ) ;
#200 = ORIENTED_EDGE ( 'NONE', *, *, #129, .T. ) ;
#201 = VERTEX_POINT ( 'NONE', #11 ) ;
#202 = CC_DESIGN_DATE_AND_TIME_ASSIGNMENT ( #124, #5, ( #15 ) ) ;
#203 = DATE_AND_TIME ( #1, #72 ) ;
#204 = AXIS2_PLACEMENT_3D ( 'NONE', #232, #33, #255 ) ;
#205 = LINE ( 'NONE', #78, #56 ) ;
#206 = DIRECTION ( 'NONE',  ( 1.000000000000000000, 0.000000000000000000, 0.000000000000000000 ) ) ;
#207 = DIRECTION ( 'NONE',  ( 0.000000000000000000, 0.000000000000000000, -1.000000000000000000 ) ) ;
#208 = EDGE_CURVE ( 'NONE', #26, #192, #162, .T. ) ;
#209 = DIRECTION ( 'NONE',  ( 0.000000000000000000, 0.000000000000000000, 1.000000000000000000 ) ) ;
#210 = AXIS2_PLACEMENT_3D ( 'NONE', #181, #185, #282 ) ;
#211 = CARTESIAN_POINT ( 'NONE',  ( 0.000000000000000000, 0.000000000000000000, 7.199999999999984190 ) ) ;
#212 = LINE ( 'NONE', #299, #58 ) ;
#213 = ORIENTED_EDGE ( 'NONE', *, *, #208, .F. ) ;
#214 =( NAMED_UNIT ( * ) PLANE_ANGLE_UNIT ( ) SI_UNIT ( $, .RADIAN. ) );
#215 = LOCAL_TIME ( 11, 23, 24.00000000000000000, #69 ) ;
#216 = LINE ( 'NONE', #91, #34 ) ;
#217 = DIRECTION ( 'NONE',  ( 0.000000000000000000, 0.000000000000000000, 1.000000000000000000 ) ) ;
#218 = ORIENTED_EDGE ( 'NONE', *, *, #239, .F. ) ;
#219 = APPLICATION_PROTOCOL_DEFINITION ( 'international standard', 'config_control_design', 1994, #199 ) ;
#220 = PERSON ( 'NEURÈENÝ', 'NEURÈENÝ', 'NEURÈENÝ', ('NEURÈENÝ'), ('NEURÈENÝ'), ('NEURÈENÝ') ) ;
#221 = ADVANCED_FACE ( 'NONE', ( #166 ), #144, .T. ) ;
#222 = SECURITY_CLASSIFICATION ( '', '', #152 ) ;
#223 = APPLICATION_PROTOCOL_DEFINITION ( 'international standard', 'config_control_design', 1994, #38 ) ;
#224 = ORIENTED_EDGE ( 'NONE', *, *, #262, .F. ) ;
#225 = CALENDAR_DATE ( 2022, 20, 6 ) ;
#226 = ORGANIZATION ( 'NEURÈENÝ', 'NEURÈENÝ', '' ) ;
#227 = ORIENTED_EDGE ( 'NONE', *, *, #36, .T. ) ;
#228 = ORIENTED_EDGE ( 'NONE', *, *, #81, .F. ) ;
#229 = COORDINATED_UNIVERSAL_TIME_OFFSET ( 1, 0, .AHEAD. ) ;
#230 = CARTESIAN_POINT ( 'NONE',  ( 8.000000000000000000, 9.797174393178825657E-16, 637.0000000000000000 ) ) ;
#231 = ADVANCED_FACE ( 'NONE', ( #243 ), #170, .T. ) ;
#232 = CARTESIAN_POINT ( 'NONE',  ( 0.000000000000000000, 0.000000000000000000, 7.000000000000000000 ) ) ;
#233 = DIRECTION ( 'NONE',  ( 1.000000000000000000, 0.000000000000000000, -0.000000000000000000 ) ) ;
#234 = AXIS2_PLACEMENT_3D ( 'NONE', #85, #114, #62 ) ;
#235 = FACE_OUTER_BOUND ( 'NONE', #49, .T. ) ;
#236 = AXIS2_PLACEMENT_3D ( 'NONE', #142, #307, #189 ) ;
#237 = ORIENTED_EDGE ( 'NONE', *, *, #196, .T. ) ;
#238 = DIRECTION ( 'NONE',  ( 1.000000000000000000, 0.000000000000000000, 0.000000000000000000 ) ) ;
#239 = EDGE_CURVE ( 'NONE', #93, #137, #216, .T. ) ;
#240 = COORDINATED_UNIVERSAL_TIME_OFFSET ( 1, 0, .AHEAD. ) ;
#241 = AXIS2_PLACEMENT_3D ( 'NONE', #135, #161, #111 ) ;
#242 = ORIENTED_EDGE ( 'NONE', *, *, #92, .F. ) ;
#243 = FACE_OUTER_BOUND ( 'NONE', #88, .T. ) ;
#244 = DIRECTION ( 'NONE',  ( 0.000000000000000000, 0.000000000000000000, 1.000000000000000000 ) ) ;
#245 = ORIENTED_EDGE ( 'NONE', *, *, #43, .T. ) ;
#246 = CARTESIAN_POINT ( 'NONE',  ( 8.200000000000001066, 0.000000000000000000, 6.999999999999992006 ) ) ;
#247 = ORIENTED_EDGE ( 'NONE', *, *, #107, .F. ) ;
#248 = DIRECTION ( 'NONE',  ( -1.000000000000000000, 0.000000000000000000, 0.000000000000000000 ) ) ;
#249 = AXIS2_PLACEMENT_3D ( 'NONE', #35, #61, #257 ) ;
#250 = CALENDAR_DATE ( 2022, 20, 6 ) ;
#251 = FACE_OUTER_BOUND ( 'NONE', #6, .T. ) ;
#252 = TOROIDAL_SURFACE ( 'NONE', #155, 8.200000000000001066, 0.2000000000000000111 ) ;
#253 = ADVANCED_FACE ( 'NONE', ( #48 ), #71, .F. ) ;
#254 = CIRCLE ( 'NONE', #236, 11.00000000000000000 ) ;
#255 = DIRECTION ( 'NONE',  ( 1.000000000000000000, 0.000000000000000000, -0.000000000000000000 ) ) ;
#256 = CC_DESIGN_PERSON_AND_ORGANIZATION_ASSIGNMENT ( #65, #50, ( #104 ) ) ;
#257 = DIRECTION ( 'NONE',  ( -1.000000000000000000, 1.224646799147353207E-16, 0.000000000000000000 ) ) ;
#258 = CARTESIAN_POINT ( 'NONE',  ( -8.000000000000000000, 0.000000000000000000, 637.0000000000000000 ) ) ;
#259 = DIRECTION ( 'NONE',  ( 0.000000000000000000, 0.000000000000000000, 1.000000000000000000 ) ) ;
#260 = CARTESIAN_POINT ( 'NONE',  ( 0.000000000000000000, 0.000000000000000000, 7.199999999999984190 ) ) ;
#261 = DIRECTION ( 'NONE',  ( -1.000000000000000000, 0.000000000000000000, 0.000000000000000000 ) ) ;
#262 = EDGE_CURVE ( 'NONE', #137, #19, #254, .T. ) ;
#263 = ORIENTED_EDGE ( 'NONE', *, *, #262, .T. ) ;
#264 = CARTESIAN_POINT ( 'NONE',  ( 0.000000000000000000, 0.000000000000000000, 7.000000000000000000 ) ) ;
#265 = DIRECTION ( 'NONE',  ( -0.000000000000000000, -0.000000000000000000, -1.000000000000000000 ) ) ;
#266 = EDGE_LOOP ( 'NONE', ( #247, #113, #237, #228 ) ) ;
#267 = AXIS2_PLACEMENT_3D ( 'NONE', #211, #279, #294 ) ;
#268 = CC_DESIGN_PERSON_AND_ORGANIZATION_ASSIGNMENT ( #286, #25, ( #222 ) ) ;
#269 = APPROVAL_PERSON_ORGANIZATION ( #289, #187, #177 ) ;
#270 = ORIENTED_EDGE ( 'NONE', *, *, #147, .T. ) ;
#271 = DATE_AND_TIME ( #225, #215 ) ;
#272 = EDGE_LOOP ( 'NONE', ( #178, #169, #105, #218 ) ) ;
#273 = APPROVAL_ROLE ( '' ) ;
#274 = FACE_OUTER_BOUND ( 'NONE', #47, .T. ) ;
#275 = EDGE_CURVE ( 'NONE', #19, #137, #156, .T. ) ;
#276 = DIRECTION ( 'NONE',  ( 0.000000000000000000, 0.000000000000000000, 1.000000000000000000 ) ) ;
#277 = PLANE ( 'NONE',  #292 ) ;
#278 = PRODUCT_DEFINITION_FORMATION_WITH_SPECIFIED_SOURCE ( 'LIBOVOLNÝ', '', #104, .NOT_KNOWN. ) ;
#279 = DIRECTION ( 'NONE',  ( 0.000000000000000000, 0.000000000000000000, 1.000000000000000000 ) ) ;
#280 = DIRECTION ( 'NONE',  ( 0.000000000000000000, 0.000000000000000000, 1.000000000000000000 ) ) ;
#281 = ORIENTED_EDGE ( 'NONE', *, *, #129, .F. ) ;
#282 = DIRECTION ( 'NONE',  ( 1.000000000000000000, 0.000000000000000000, 0.000000000000000000 ) ) ;
#283 = AXIS2_PLACEMENT_3D ( 'NONE', #21, #118, #165 ) ;
#284 = ORIENTED_EDGE ( 'NONE', *, *, #92, .T. ) ;
#285 = CARTESIAN_POINT ( 'NONE',  ( 0.000000000000000000, 0.000000000000000000, 0.000000000000000000 ) ) ;
#286 = PERSON_AND_ORGANIZATION ( #220, #226 ) ;
#287 = VERTEX_POINT ( 'NONE', #94 ) ;
#288 = ORIENTED_EDGE ( 'NONE', *, *, #36, .F. ) ;
#289 = PERSON_AND_ORGANIZATION ( #220, #226 ) ;
#290 = CC_DESIGN_DATE_AND_TIME_ASSIGNMENT ( #150, #128, ( #222 ) ) ;
#291 = COORDINATED_UNIVERSAL_TIME_OFFSET ( 1, 0, .AHEAD. ) ;
#292 = AXIS2_PLACEMENT_3D ( 'NONE', #59, #158, #233 ) ;
#293 = ADVANCED_FACE ( 'NONE', ( #190 ), #194, .T. ) ;
#294 = DIRECTION ( 'NONE',  ( 1.000000000000000000, 0.000000000000000000, 0.000000000000000000 ) ) ;
#295 = DESIGN_CONTEXT ( 'detailed design', #38, 'design' ) ;
#296 = CARTESIAN_POINT ( 'NONE',  ( 8.000000000000000000, 9.797174393178825657E-16, 7.199999999999984190 ) ) ;
#297 = DIRECTION ( 'NONE',  ( 1.000000000000000000, 0.000000000000000000, 0.000000000000000000 ) ) ;
#298 = CARTESIAN_POINT ( 'NONE',  ( -8.000000000000000000, 0.000000000000000000, 637.0000000000000000 ) ) ;
#299 = CARTESIAN_POINT ( 'NONE',  ( 8.000000000000000000, 9.797174393178825657E-16, 637.0000000000000000 ) ) ;
#300 = VECTOR ( 'NONE', #57, 1000.000000000000000 ) ;
#301 = ORIENTED_EDGE ( 'NONE', *, *, #140, .F. ) ;
#302 = AXIS2_PLACEMENT_3D ( 'NONE', #17, #133, #80 ) ;
#303 = DIRECTION ( 'NONE',  ( -0.000000000000000000, -0.000000000000000000, -1.000000000000000000 ) ) ;
#304 = CC_DESIGN_PERSON_AND_ORGANIZATION_ASSIGNMENT ( #148, #74, ( #278 ) ) ;
#305 = VERTEX_POINT ( 'NONE', #246 ) ;
#306 = ORIENTED_EDGE ( 'NONE', *, *, #117, .T. ) ;
#307 = DIRECTION ( 'NONE',  ( 0.000000000000000000, 0.000000000000000000, 1.000000000000000000 ) ) ;
ENDSEC;
END-ISO-10303-21;
