ISO-10303-21;
HEADER;
FILE_DESCRIPTION (( 'STEP AP203' ),
    '1' );
FILE_NAME ('d473.STEP',
    '2022-06-20T10:01:17',
    ( '' ),
    ( '' ),
    'SwSTEP 2.0',
    'SolidWorks 2019',
    '' );
FILE_SCHEMA (( 'CONFIG_CONTROL_DESIGN' ));
ENDSEC;

DATA;
#1 = VERTEX_POINT ( 'NONE', #116 ) ;
#2 = APPROVAL ( #265, 'NEURÈENÝ' ) ;
#3 = CALENDAR_DATE ( 2022, 20, 6 ) ;
#4 = DIRECTION ( 'NONE',  ( 1.000000000000000000, 0.000000000000000000, 0.000000000000000000 ) ) ;
#5 = LINE ( 'NONE', #49, #165 ) ;
#6 = DIRECTION ( 'NONE',  ( -0.000000000000000000, -0.000000000000000000, -1.000000000000000000 ) ) ;
#7 = AXIS2_PLACEMENT_3D ( 'NONE', #233, #36, #150 ) ;
#8 = DIRECTION ( 'NONE',  ( 1.224646799147353207E-16, 1.000000000000000000, -0.000000000000000000 ) ) ;
#9 = DIRECTION ( 'NONE',  ( -1.000000000000000000, 0.000000000000000000, 0.000000000000000000 ) ) ;
#10 = DIRECTION ( 'NONE',  ( 1.000000000000000000, 0.000000000000000000, 0.000000000000000000 ) ) ;
#11 = VERTEX_POINT ( 'NONE', #138 ) ;
#12 = DIRECTION ( 'NONE',  ( 1.000000000000000000, 0.000000000000000000, 0.000000000000000000 ) ) ;
#13 = DIRECTION ( 'NONE',  ( -1.000000000000000000, 1.224646799147353207E-16, 0.000000000000000000 ) ) ;
#14 = EDGE_LOOP ( 'NONE', ( #211, #127 ) ) ;
#15 = CALENDAR_DATE ( 2022, 20, 6 ) ;
#16 = AXIS2_PLACEMENT_3D ( 'NONE', #198, #293, #278 ) ;
#17 = APPROVAL_ROLE ( '' ) ;
#18 = ADVANCED_FACE ( 'NONE', ( #242 ), #113, .F. ) ;
#19 = DATE_AND_TIME ( #87, #199 ) ;
#20 = ORIENTED_EDGE ( 'NONE', *, *, #154, .T. ) ;
#21 = DATE_TIME_ROLE ( 'creation_date' ) ;
#22 = CIRCLE ( 'NONE', #125, 2.799999999999999822 ) ;
#23 = CARTESIAN_POINT ( 'NONE',  ( 0.000000000000000000, 0.000000000000000000, 3.199999999999980638 ) ) ;
#24 = CARTESIAN_POINT ( 'NONE',  ( 0.000000000000000000, 0.000000000000000000, 3.000000000000000000 ) ) ;
#25 = EDGE_LOOP ( 'NONE', ( #188, #156, #20, #105 ) ) ;
#26 = EDGE_LOOP ( 'NONE', ( #83, #179 ) ) ;
#27 = EDGE_CURVE ( 'NONE', #247, #37, #226, .T. ) ;
#28 = DIRECTION ( 'NONE',  ( 0.000000000000000000, -1.000000000000000000, 0.000000000000000000 ) ) ;
#29 = AXIS2_PLACEMENT_3D ( 'NONE', #251, #203, #221 ) ;
#30 = SHAPE_DEFINITION_REPRESENTATION ( #162, #224 ) ;
#31 = CARTESIAN_POINT ( 'NONE',  ( 0.000000000000000000, 0.000000000000000000, 633.0000000000000000 ) ) ;
#32 = TOROIDAL_SURFACE ( 'NONE', #43, 2.799999999999999822, 0.2000000000000000111 ) ;
#33 = CLOSED_SHELL ( 'NONE', ( #296, #210, #163, #225, #134, #18, #177, #45, #51 ) ) ;
#34 = CARTESIAN_POINT ( 'NONE',  ( -2.799999999999999822, 3.429011037612589276E-16, 2.999999999999990674 ) ) ;
#35 = VECTOR ( 'NONE', #100, 1000.000000000000000 ) ;
#36 = DIRECTION ( 'NONE',  ( 0.000000000000000000, 0.000000000000000000, 1.000000000000000000 ) ) ;
#37 = VERTEX_POINT ( 'NONE', #166 ) ;
#38 = EDGE_CURVE ( 'NONE', #107, #207, #157, .T. ) ;
#39 = CARTESIAN_POINT ( 'NONE',  ( -5.000000000000000000, 0.000000000000000000, 0.000000000000000000 ) ) ;
#40 = PERSON_AND_ORGANIZATION_ROLE ( 'creator' ) ;
#41 = DIRECTION ( 'NONE',  ( 1.000000000000000000, 0.000000000000000000, 0.000000000000000000 ) ) ;
#42 = ORIENTED_EDGE ( 'NONE', *, *, #119, .T. ) ;
#43 = AXIS2_PLACEMENT_3D ( 'NONE', #159, #304, #183 ) ;
#44 = APPROVAL ( #50, 'NEURÈENÝ' ) ;
#45 = ADVANCED_FACE ( 'NONE', ( #114 ), #307, .T. ) ;
#46 = ORIENTED_EDGE ( 'NONE', *, *, #215, .T. ) ;
#47 = DATE_AND_TIME ( #3, #253 ) ;
#48 = DIRECTION ( 'NONE',  ( 1.000000000000000000, 0.000000000000000000, 0.000000000000000000 ) ) ;
#49 = CARTESIAN_POINT ( 'NONE',  ( -5.000000000000000000, 0.000000000000000000, 3.000000000000000000 ) ) ;
#50 = APPROVAL_STATUS ( 'not_yet_approved' ) ;
#51 = ADVANCED_FACE ( 'NONE', ( #88 ), #112, .F. ) ;
#52 = CARTESIAN_POINT ( 'NONE',  ( 2.799999999999999822, 0.000000000000000000, 3.199999999999980638 ) ) ;
#53 = COORDINATED_UNIVERSAL_TIME_OFFSET ( 1, 0, .AHEAD. ) ;
#54 = AXIS2_PLACEMENT_3D ( 'NONE', #118, #231, #12 ) ;
#55 = CIRCLE ( 'NONE', #238, 2.799999999999999822 ) ;
#56 = FACE_OUTER_BOUND ( 'NONE', #25, .T. ) ;
#57 = APPLICATION_CONTEXT ( 'configuration controlled 3d designs of mechanical parts and assemblies' ) ;
#58 = APPROVAL_PERSON_ORGANIZATION ( #263, #2, #187 ) ;
#59 = PRODUCT_RELATED_PRODUCT_CATEGORY ( 'detail', '', ( #190 ) ) ;
#60 = CARTESIAN_POINT ( 'NONE',  ( 5.000000000000000000, 6.123233995736766282E-16, 3.000000000000000000 ) ) ;
#61 = EDGE_LOOP ( 'NONE', ( #79, #285, #270, #147 ) ) ;
#62 = DIRECTION ( 'NONE',  ( 1.000000000000000000, 0.000000000000000000, 0.000000000000000000 ) ) ;
#63 = CALENDAR_DATE ( 2022, 20, 6 ) ;
#64 = AXIS2_PLACEMENT_3D ( 'NONE', #52, #28, #126 ) ;
#65 = DIRECTION ( 'NONE',  ( 0.000000000000000000, 0.000000000000000000, 1.000000000000000000 ) ) ;
#66 = APPLICATION_PROTOCOL_DEFINITION ( 'international standard', 'config_control_design', 1994, #271 ) ;
#67 = EDGE_CURVE ( 'NONE', #207, #1, #194, .T. ) ;
#68 = ORIENTED_EDGE ( 'NONE', *, *, #248, .F. ) ;
#69 = PRODUCT_DEFINITION_FORMATION_WITH_SPECIFIED_SOURCE ( 'LIBOVOLNÝ', '', #190, .NOT_KNOWN. ) ;
#70 = ORIENTED_EDGE ( 'NONE', *, *, #300, .F. ) ;
#71 = PERSON_AND_ORGANIZATION ( #292, #243 ) ;
#72 = EDGE_LOOP ( 'NONE', ( #70, #189, #160, #174 ) ) ;
#73 = DIRECTION ( 'NONE',  ( -0.000000000000000000, -0.000000000000000000, -1.000000000000000000 ) ) ;
#74 = FACE_OUTER_BOUND ( 'NONE', #61, .T. ) ;
#75 = PERSON_AND_ORGANIZATION_ROLE ( 'design_supplier' ) ;
#76 = PRODUCT_DEFINITION ( 'NEZNÁMÝ', '', #69, #84 ) ;
#77 = CYLINDRICAL_SURFACE ( 'NONE', #115, 2.600000000000000089 ) ;
#78 = CARTESIAN_POINT ( 'NONE',  ( 0.000000000000000000, 0.000000000000000000, 3.000000000000000000 ) ) ;
#79 = ORIENTED_EDGE ( 'NONE', *, *, #197, .F. ) ;
#80 = CARTESIAN_POINT ( 'NONE',  ( 2.600000000000000089, 3.184081677783118191E-16, 633.0000000000000000 ) ) ;
#81 = ORIENTED_EDGE ( 'NONE', *, *, #27, .T. ) ;
#82 = AXIS2_PLACEMENT_3D ( 'NONE', #303, #267, #62 ) ;
#83 = ORIENTED_EDGE ( 'NONE', *, *, #232, .T. ) ;
#84 = DESIGN_CONTEXT ( 'detailed design', #57, 'design' ) ;
#85 = APPLICATION_PROTOCOL_DEFINITION ( 'international standard', 'config_control_design', 1994, #57 ) ;
#86 = CC_DESIGN_APPROVAL ( #2, ( #69 ) ) ;
#87 = CALENDAR_DATE ( 2022, 20, 6 ) ;
#88 = FACE_OUTER_BOUND ( 'NONE', #234, .T. ) ;
#89 = ORIENTED_EDGE ( 'NONE', *, *, #246, .F. ) ;
#90 = DATE_AND_TIME ( #170, #201 ) ;
#91 = EDGE_LOOP ( 'NONE', ( #81, #289 ) ) ;
#92 = APPROVAL_DATE_TIME ( #90, #44 ) ;
#93 = DIRECTION ( 'NONE',  ( 0.000000000000000000, 0.000000000000000000, 1.000000000000000000 ) ) ;
#94 = DIRECTION ( 'NONE',  ( 1.000000000000000000, 0.000000000000000000, 0.000000000000000000 ) ) ;
#95 = DATE_TIME_ROLE ( 'classification_date' ) ;
#96 = DIRECTION ( 'NONE',  ( -1.000000000000000000, 0.000000000000000000, 0.000000000000000000 ) ) ;
#97 = LINE ( 'NONE', #60, #35 ) ;
#98 = CC_DESIGN_DATE_AND_TIME_ASSIGNMENT ( #47, #95, ( #297 ) ) ;
#99 = CC_DESIGN_APPROVAL ( #44, ( #297 ) ) ;
#100 = DIRECTION ( 'NONE',  ( -0.000000000000000000, -0.000000000000000000, -1.000000000000000000 ) ) ;
#101 = ORIENTED_EDGE ( 'NONE', *, *, #232, .F. ) ;
#102 = CARTESIAN_POINT ( 'NONE',  ( 0.000000000000000000, 0.000000000000000000, 3.000000000000000000 ) ) ;
#103 = VERTEX_POINT ( 'NONE', #139 ) ;
#104 = FACE_OUTER_BOUND ( 'NONE', #91, .T. ) ;
#105 = ORIENTED_EDGE ( 'NONE', *, *, #67, .F. ) ;
#106 = APPROVAL_PERSON_ORGANIZATION ( #252, #44, #143 ) ;
#107 = VERTEX_POINT ( 'NONE', #218 ) ;
#108 = CIRCLE ( 'NONE', #130, 0.2000000000000000944 ) ;
#109 = CC_DESIGN_PERSON_AND_ORGANIZATION_ASSIGNMENT ( #262, #111, ( #69 ) ) ;
#110 = DIRECTION ( 'NONE',  ( -0.000000000000000000, -0.000000000000000000, -1.000000000000000000 ) ) ;
#111 = PERSON_AND_ORGANIZATION_ROLE ( 'creator' ) ;
#112 = TOROIDAL_SURFACE ( 'NONE', #195, 2.799999999999999822, 0.2000000000000000111 ) ;
#113 = PLANE ( 'NONE',  #245 ) ;
#114 = FACE_OUTER_BOUND ( 'NONE', #26, .T. ) ;
#115 = AXIS2_PLACEMENT_3D ( 'NONE', #250, #73, #9 ) ;
#116 = CARTESIAN_POINT ( 'NONE',  ( -2.600000000000000089, 0.000000000000000000, 3.199999999999980638 ) ) ;
#117 = CARTESIAN_POINT ( 'NONE',  ( -2.799999999999999822, 3.429011037612588783E-16, 3.199999999999980638 ) ) ;
#118 = CARTESIAN_POINT ( 'NONE',  ( 0.000000000000000000, 0.000000000000000000, 633.0000000000000000 ) ) ;
#119 = EDGE_CURVE ( 'NONE', #247, #268, #5, .T. ) ;
#120 =( GEOMETRIC_REPRESENTATION_CONTEXT ( 3 ) GLOBAL_UNCERTAINTY_ASSIGNED_CONTEXT ( ( #282 ) ) GLOBAL_UNIT_ASSIGNED_CONTEXT ( ( #137, #241, #283 ) ) REPRESENTATION_CONTEXT ( 'NONE', 'WORKASPACE' ) );
#121 = MANIFOLD_SOLID_BREP ( 'Zaoblit1', #33 ) ;
#122 = VECTOR ( 'NONE', #110, 1000.000000000000000 ) ;
#123 = CC_DESIGN_PERSON_AND_ORGANIZATION_ASSIGNMENT ( #193, #75, ( #69 ) ) ;
#124 = DIRECTION ( 'NONE',  ( 1.000000000000000000, 0.000000000000000000, 0.000000000000000000 ) ) ;
#125 = AXIS2_PLACEMENT_3D ( 'NONE', #102, #276, #124 ) ;
#126 = DIRECTION ( 'NONE',  ( 0.000000000000000000, 0.000000000000000000, -1.000000000000000000 ) ) ;
#127 = ORIENTED_EDGE ( 'NONE', *, *, #152, .F. ) ;
#128 = FACE_OUTER_BOUND ( 'NONE', #72, .T. ) ;
#129 = COORDINATED_UNIVERSAL_TIME_OFFSET ( 1, 0, .AHEAD. ) ;
#130 = AXIS2_PLACEMENT_3D ( 'NONE', #117, #8, #13 ) ;
#131 = EDGE_CURVE ( 'NONE', #103, #258, #55, .T. ) ;
#132 = PERSON_AND_ORGANIZATION ( #292, #243 ) ;
#133 = CIRCLE ( 'NONE', #7, 5.000000000000000000 ) ;
#134 = ADVANCED_FACE ( 'NONE', ( #196, #104 ), #295, .T. ) ;
#135 = CARTESIAN_POINT ( 'NONE',  ( 0.000000000000000000, 0.000000000000000000, 633.0000000000000000 ) ) ;
#136 = ORIENTED_EDGE ( 'NONE', *, *, #300, .T. ) ;
#137 =( LENGTH_UNIT ( ) NAMED_UNIT ( * ) SI_UNIT ( .MILLI., .METRE. ) );
#138 = CARTESIAN_POINT ( 'NONE',  ( 5.000000000000000000, 6.123233995736766282E-16, 0.000000000000000000 ) ) ;
#139 = CARTESIAN_POINT ( 'NONE',  ( 2.799999999999999822, 0.000000000000000000, 2.999999999999990674 ) ) ;
#140 = CARTESIAN_POINT ( 'NONE',  ( 0.000000000000000000, 0.000000000000000000, 3.000000000000000000 ) ) ;
#141 = CC_DESIGN_PERSON_AND_ORGANIZATION_ASSIGNMENT ( #261, #40, ( #76 ) ) ;
#142 = DIRECTION ( 'NONE',  ( 0.000000000000000000, 0.000000000000000000, 1.000000000000000000 ) ) ;
#143 = APPROVAL_ROLE ( '' ) ;
#144 = CYLINDRICAL_SURFACE ( 'NONE', #223, 5.000000000000000000 ) ;
#145 = SECURITY_CLASSIFICATION_LEVEL ( 'unclassified' ) ;
#146 = CARTESIAN_POINT ( 'NONE',  ( -5.000000000000000000, 0.000000000000000000, 3.000000000000000000 ) ) ;
#147 = ORIENTED_EDGE ( 'NONE', *, *, #119, .F. ) ;
#148 = DIRECTION ( 'NONE',  ( 1.000000000000000000, 0.000000000000000000, 0.000000000000000000 ) ) ;
#149 = VECTOR ( 'NONE', #178, 1000.000000000000000 ) ;
#150 = DIRECTION ( 'NONE',  ( 1.000000000000000000, 0.000000000000000000, 0.000000000000000000 ) ) ;
#151 = APPROVAL_DATE_TIME ( #19, #227 ) ;
#152 = EDGE_CURVE ( 'NONE', #11, #268, #133, .T. ) ;
#153 = DATE_AND_TIME ( #63, #161 ) ;
#154 = EDGE_CURVE ( 'NONE', #249, #1, #175, .T. ) ;
#155 = DIRECTION ( 'NONE',  ( 1.000000000000000000, 0.000000000000000000, 0.000000000000000000 ) ) ;
#156 = ORIENTED_EDGE ( 'NONE', *, *, #248, .T. ) ;
#157 = CIRCLE ( 'NONE', #281, 2.600000000000000089 ) ;
#158 = CARTESIAN_POINT ( 'NONE',  ( 0.000000000000000000, 0.000000000000000000, 633.0000000000000000 ) ) ;
#159 = CARTESIAN_POINT ( 'NONE',  ( 0.000000000000000000, 0.000000000000000000, 3.199999999999980638 ) ) ;
#160 = ORIENTED_EDGE ( 'NONE', *, *, #131, .F. ) ;
#161 = LOCAL_TIME ( 12, 1, 17.00000000000000000, #129 ) ;
#162 = PRODUCT_DEFINITION_SHAPE ( 'NONE', 'NONE',  #76 ) ;
#163 = ADVANCED_FACE ( 'NONE', ( #74 ), #222, .T. ) ;
#164 = ORIENTED_EDGE ( 'NONE', *, *, #219, .T. ) ;
#165 = VECTOR ( 'NONE', #220, 1000.000000000000000 ) ;
#166 = CARTESIAN_POINT ( 'NONE',  ( 5.000000000000000000, 6.123233995736766282E-16, 3.000000000000000000 ) ) ;
#167 = CYLINDRICAL_SURFACE ( 'NONE', #306, 2.600000000000000089 ) ;
#168 = APPROVAL_PERSON_ORGANIZATION ( #132, #227, #17 ) ;
#169 = DIRECTION ( 'NONE',  ( -0.000000000000000000, -0.000000000000000000, -1.000000000000000000 ) ) ;
#170 = CALENDAR_DATE ( 2022, 20, 6 ) ;
#171 = AXIS2_PLACEMENT_3D ( 'NONE', #24, #93, #41 ) ;
#172 = CC_DESIGN_PERSON_AND_ORGANIZATION_ASSIGNMENT ( #71, #216, ( #297 ) ) ;
#173 = DIRECTION ( 'NONE',  ( -1.000000000000000000, 0.000000000000000000, 0.000000000000000000 ) ) ;
#174 = ORIENTED_EDGE ( 'NONE', *, *, #219, .F. ) ;
#175 = CIRCLE ( 'NONE', #29, 2.600000000000000089 ) ;
#176 = DIRECTION ( 'NONE',  ( 0.000000000000000000, 0.000000000000000000, 1.000000000000000000 ) ) ;
#177 = ADVANCED_FACE ( 'NONE', ( #299 ), #77, .T. ) ;
#178 = DIRECTION ( 'NONE',  ( -0.000000000000000000, -0.000000000000000000, -1.000000000000000000 ) ) ;
#179 = ORIENTED_EDGE ( 'NONE', *, *, #38, .T. ) ;
#180 = AXIS2_PLACEMENT_3D ( 'NONE', #291, #176, #10 ) ;
#181 = DIRECTION ( 'NONE',  ( 0.000000000000000000, 0.000000000000000000, 1.000000000000000000 ) ) ;
#182 = EDGE_LOOP ( 'NONE', ( #298, #266 ) ) ;
#183 = DIRECTION ( 'NONE',  ( 1.000000000000000000, 0.000000000000000000, 0.000000000000000000 ) ) ;
#184 = COORDINATED_UNIVERSAL_TIME_OFFSET ( 1, 0, .AHEAD. ) ;
#185 = EDGE_CURVE ( 'NONE', #37, #11, #97, .T. ) ;
#186 = AXIS2_PLACEMENT_3D ( 'NONE', #305, #181, #155 ) ;
#187 = APPROVAL_ROLE ( '' ) ;
#188 = ORIENTED_EDGE ( 'NONE', *, *, #38, .F. ) ;
#189 = ORIENTED_EDGE ( 'NONE', *, *, #206, .T. ) ;
#190 = PRODUCT ( 'd473', 'd473', '', ( #280 ) ) ;
#191 = DIRECTION ( 'NONE',  ( 1.000000000000000000, 0.000000000000000000, -0.000000000000000000 ) ) ;
#192 = AXIS2_PLACEMENT_3D ( 'NONE', #274, #256, #148 ) ;
#193 = PERSON_AND_ORGANIZATION ( #292, #243 ) ;
#194 = LINE ( 'NONE', #287, #122 ) ;
#195 = AXIS2_PLACEMENT_3D ( 'NONE', #23, #286, #48 ) ;
#196 = FACE_BOUND ( 'NONE', #182, .T. ) ;
#197 = EDGE_CURVE ( 'NONE', #37, #247, #230, .T. ) ;
#198 = CARTESIAN_POINT ( 'NONE',  ( 0.000000000000000000, 0.000000000000000000, 3.000000000000000000 ) ) ;
#199 = LOCAL_TIME ( 12, 1, 17.00000000000000000, #184 ) ;
#200 = DIRECTION ( 'NONE',  ( -0.000000000000000000, -0.000000000000000000, -1.000000000000000000 ) ) ;
#201 = LOCAL_TIME ( 12, 1, 17.00000000000000000, #290 ) ;
#202 = CC_DESIGN_PERSON_AND_ORGANIZATION_ASSIGNMENT ( #237, #239, ( #190 ) ) ;
#203 = DIRECTION ( 'NONE',  ( 0.000000000000000000, 0.000000000000000000, 1.000000000000000000 ) ) ;
#204 = ORIENTED_EDGE ( 'NONE', *, *, #154, .F. ) ;
#205 = LINE ( 'NONE', #80, #149 ) ;
#206 = EDGE_CURVE ( 'NONE', #1, #258, #108, .T. ) ;
#207 = VERTEX_POINT ( 'NONE', #277 ) ;
#208 = CIRCLE ( 'NONE', #82, 2.600000000000000089 ) ;
#209 = APPROVAL_DATE_TIME ( #284, #2 ) ;
#210 = ADVANCED_FACE ( 'NONE', ( #56 ), #167, .T. ) ;
#211 = ORIENTED_EDGE ( 'NONE', *, *, #215, .F. ) ;
#212 = CIRCLE ( 'NONE', #54, 2.600000000000000089 ) ;
#213 = DIRECTION ( 'NONE',  ( 0.000000000000000000, 0.000000000000000000, 1.000000000000000000 ) ) ;
#214 = AXIS2_PLACEMENT_3D ( 'NONE', #158, #213, #191 ) ;
#215 = EDGE_CURVE ( 'NONE', #268, #11, #294, .T. ) ;
#216 = PERSON_AND_ORGANIZATION_ROLE ( 'classification_officer' ) ;
#217 = DIRECTION ( 'NONE',  ( 0.000000000000000000, 0.000000000000000000, 1.000000000000000000 ) ) ;
#218 = CARTESIAN_POINT ( 'NONE',  ( 2.600000000000000089, 3.184081677783118191E-16, 633.0000000000000000 ) ) ;
#219 = EDGE_CURVE ( 'NONE', #249, #103, #257, .T. ) ;
#220 = DIRECTION ( 'NONE',  ( -0.000000000000000000, -0.000000000000000000, -1.000000000000000000 ) ) ;
#221 = DIRECTION ( 'NONE',  ( 1.000000000000000000, 0.000000000000000000, 0.000000000000000000 ) ) ;
#222 = CYLINDRICAL_SURFACE ( 'NONE', #16, 5.000000000000000000 ) ;
#223 = AXIS2_PLACEMENT_3D ( 'NONE', #272, #200, #173 ) ;
#224 = ADVANCED_BREP_SHAPE_REPRESENTATION ( 'd473', ( #121, #186 ), #120 ) ;
#225 = ADVANCED_FACE ( 'NONE', ( #254 ), #144, .T. ) ;
#226 = CIRCLE ( 'NONE', #171, 5.000000000000000000 ) ;
#227 = APPROVAL ( #301, 'NEURÈENÝ' ) ;
#228 = DIRECTION ( 'NONE',  ( 1.000000000000000000, 0.000000000000000000, -0.000000000000000000 ) ) ;
#229 = EDGE_LOOP ( 'NONE', ( #255, #264, #42, #46 ) ) ;
#230 = CIRCLE ( 'NONE', #180, 5.000000000000000000 ) ;
#231 = DIRECTION ( 'NONE',  ( 0.000000000000000000, 0.000000000000000000, 1.000000000000000000 ) ) ;
#232 = EDGE_CURVE ( 'NONE', #207, #107, #212, .T. ) ;
#233 = CARTESIAN_POINT ( 'NONE',  ( 0.000000000000000000, 0.000000000000000000, 0.000000000000000000 ) ) ;
#234 = EDGE_LOOP ( 'NONE', ( #260, #204, #164, #89 ) ) ;
#235 = COORDINATED_UNIVERSAL_TIME_OFFSET ( 1, 0, .AHEAD. ) ;
#236 = CC_DESIGN_DATE_AND_TIME_ASSIGNMENT ( #153, #21, ( #76 ) ) ;
#237 = PERSON_AND_ORGANIZATION ( #292, #243 ) ;
#238 = AXIS2_PLACEMENT_3D ( 'NONE', #140, #6, #94 ) ;
#239 = PERSON_AND_ORGANIZATION_ROLE ( 'design_owner' ) ;
#240 = ORIENTED_EDGE ( 'NONE', *, *, #67, .T. ) ;
#241 =( NAMED_UNIT ( * ) PLANE_ANGLE_UNIT ( ) SI_UNIT ( $, .RADIAN. ) );
#242 = FACE_OUTER_BOUND ( 'NONE', #14, .T. ) ;
#243 = ORGANIZATION ( 'NEURÈENÝ', 'NEURÈENÝ', '' ) ;
#244 = DIRECTION ( 'NONE',  ( 1.000000000000000000, 0.000000000000000000, -0.000000000000000000 ) ) ;
#245 = AXIS2_PLACEMENT_3D ( 'NONE', #269, #65, #244 ) ;
#246 = EDGE_CURVE ( 'NONE', #258, #103, #22, .T. ) ;
#247 = VERTEX_POINT ( 'NONE', #146 ) ;
#248 = EDGE_CURVE ( 'NONE', #107, #249, #205, .T. ) ;
#249 = VERTEX_POINT ( 'NONE', #259 ) ;
#250 = CARTESIAN_POINT ( 'NONE',  ( 0.000000000000000000, 0.000000000000000000, 633.0000000000000000 ) ) ;
#251 = CARTESIAN_POINT ( 'NONE',  ( 0.000000000000000000, 0.000000000000000000, 3.199999999999980638 ) ) ;
#252 = PERSON_AND_ORGANIZATION ( #292, #243 ) ;
#253 = LOCAL_TIME ( 12, 1, 17.00000000000000000, #53 ) ;
#254 = FACE_OUTER_BOUND ( 'NONE', #229, .T. ) ;
#255 = ORIENTED_EDGE ( 'NONE', *, *, #185, .F. ) ;
#256 = DIRECTION ( 'NONE',  ( 0.000000000000000000, 0.000000000000000000, 1.000000000000000000 ) ) ;
#257 = CIRCLE ( 'NONE', #64, 0.2000000000000000944 ) ;
#258 = VERTEX_POINT ( 'NONE', #34 ) ;
#259 = CARTESIAN_POINT ( 'NONE',  ( 2.600000000000000089, 3.184081677783118191E-16, 3.199999999999980638 ) ) ;
#260 = ORIENTED_EDGE ( 'NONE', *, *, #206, .F. ) ;
#261 = PERSON_AND_ORGANIZATION ( #292, #243 ) ;
#262 = PERSON_AND_ORGANIZATION ( #292, #243 ) ;
#263 = PERSON_AND_ORGANIZATION ( #292, #243 ) ;
#264 = ORIENTED_EDGE ( 'NONE', *, *, #27, .F. ) ;
#265 = APPROVAL_STATUS ( 'not_yet_approved' ) ;
#266 = ORIENTED_EDGE ( 'NONE', *, *, #246, .T. ) ;
#267 = DIRECTION ( 'NONE',  ( 0.000000000000000000, 0.000000000000000000, 1.000000000000000000 ) ) ;
#268 = VERTEX_POINT ( 'NONE', #39 ) ;
#269 = CARTESIAN_POINT ( 'NONE',  ( 0.000000000000000000, 0.000000000000000000, 0.000000000000000000 ) ) ;
#270 = ORIENTED_EDGE ( 'NONE', *, *, #152, .T. ) ;
#271 = APPLICATION_CONTEXT ( 'configuration controlled 3d designs of mechanical parts and assemblies' ) ;
#272 = CARTESIAN_POINT ( 'NONE',  ( 0.000000000000000000, 0.000000000000000000, 3.000000000000000000 ) ) ;
#273 = CC_DESIGN_SECURITY_CLASSIFICATION ( #297, ( #69 ) ) ;
#274 = CARTESIAN_POINT ( 'NONE',  ( 0.000000000000000000, 0.000000000000000000, 0.000000000000000000 ) ) ;
#275 = AXIS2_PLACEMENT_3D ( 'NONE', #78, #142, #228 ) ;
#276 = DIRECTION ( 'NONE',  ( -0.000000000000000000, -0.000000000000000000, -1.000000000000000000 ) ) ;
#277 = CARTESIAN_POINT ( 'NONE',  ( -2.600000000000000089, 0.000000000000000000, 633.0000000000000000 ) ) ;
#278 = DIRECTION ( 'NONE',  ( -1.000000000000000000, 0.000000000000000000, 0.000000000000000000 ) ) ;
#279 = EDGE_LOOP ( 'NONE', ( #68, #101, #240, #136 ) ) ;
#280 = MECHANICAL_CONTEXT ( 'NONE', #271, 'mechanical' ) ;
#281 = AXIS2_PLACEMENT_3D ( 'NONE', #135, #217, #4 ) ;
#282 = UNCERTAINTY_MEASURE_WITH_UNIT (LENGTH_MEASURE( 1.000000000000000082E-05 ), #137, 'distance_accuracy_value', 'NONE');
#283 =( NAMED_UNIT ( * ) SI_UNIT ( $, .STERADIAN. ) SOLID_ANGLE_UNIT ( ) );
#284 = DATE_AND_TIME ( #15, #288 ) ;
#285 = ORIENTED_EDGE ( 'NONE', *, *, #185, .T. ) ;
#286 = DIRECTION ( 'NONE',  ( 0.000000000000000000, 0.000000000000000000, 1.000000000000000000 ) ) ;
#287 = CARTESIAN_POINT ( 'NONE',  ( -2.600000000000000089, 0.000000000000000000, 633.0000000000000000 ) ) ;
#288 = LOCAL_TIME ( 12, 1, 17.00000000000000000, #235 ) ;
#289 = ORIENTED_EDGE ( 'NONE', *, *, #197, .T. ) ;
#290 = COORDINATED_UNIVERSAL_TIME_OFFSET ( 1, 0, .AHEAD. ) ;
#291 = CARTESIAN_POINT ( 'NONE',  ( 0.000000000000000000, 0.000000000000000000, 3.000000000000000000 ) ) ;
#292 = PERSON ( 'NEURÈENÝ', 'NEURÈENÝ', 'NEURÈENÝ', ('NEURÈENÝ'), ('NEURÈENÝ'), ('NEURÈENÝ') ) ;
#293 = DIRECTION ( 'NONE',  ( -0.000000000000000000, -0.000000000000000000, -1.000000000000000000 ) ) ;
#294 = CIRCLE ( 'NONE', #192, 5.000000000000000000 ) ;
#295 = PLANE ( 'NONE',  #275 ) ;
#296 = ADVANCED_FACE ( 'NONE', ( #128 ), #32, .F. ) ;
#297 = SECURITY_CLASSIFICATION ( '', '', #145 ) ;
#298 = ORIENTED_EDGE ( 'NONE', *, *, #131, .T. ) ;
#299 = FACE_OUTER_BOUND ( 'NONE', #279, .T. ) ;
#300 = EDGE_CURVE ( 'NONE', #1, #249, #208, .T. ) ;
#301 = APPROVAL_STATUS ( 'not_yet_approved' ) ;
#302 = CC_DESIGN_APPROVAL ( #227, ( #76 ) ) ;
#303 = CARTESIAN_POINT ( 'NONE',  ( 0.000000000000000000, 0.000000000000000000, 3.199999999999980638 ) ) ;
#304 = DIRECTION ( 'NONE',  ( 0.000000000000000000, 0.000000000000000000, 1.000000000000000000 ) ) ;
#305 = CARTESIAN_POINT ( 'NONE',  ( 0.000000000000000000, 0.000000000000000000, 0.000000000000000000 ) ) ;
#306 = AXIS2_PLACEMENT_3D ( 'NONE', #31, #169, #96 ) ;
#307 = PLANE ( 'NONE',  #214 ) ;
ENDSEC;
END-ISO-10303-21;
