ISO-10303-21;
HEADER;
FILE_DESCRIPTION (( 'STEP AP203' ),
    '1' );
FILE_NAME ('a07b.STEP',
    '2022-06-20T09:50:16',
    ( '' ),
    ( '' ),
    'SwSTEP 2.0',
    'SolidWorks 2019',
    '' );
FILE_SCHEMA (( 'CONFIG_CONTROL_DESIGN' ));
ENDSEC;

DATA;
#1 = DIRECTION ( 'NONE',  ( 1.000000000000000000, 0.000000000000000000, -0.000000000000000000 ) ) ;
#2 = CARTESIAN_POINT ( 'NONE',  ( 0.000000000000000000, 0.000000000000000000, 5.000000000000000000 ) ) ;
#3 = APPLICATION_CONTEXT ( 'configuration controlled 3d designs of mechanical parts and assemblies' ) ;
#4 = EDGE_CURVE ( 'NONE', #154, #127, #275, .T. ) ;
#5 = DIRECTION ( 'NONE',  ( -0.000000000000000000, -0.000000000000000000, -1.000000000000000000 ) ) ;
#6 = CC_DESIGN_SECURITY_CLASSIFICATION ( #102, ( #24 ) ) ;
#7 = ORIENTED_EDGE ( 'NONE', *, *, #168, .F. ) ;
#8 = EDGE_LOOP ( 'NONE', ( #206, #225, #153, #34 ) ) ;
#9 = CIRCLE ( 'NONE', #241, 6.000000000000000888 ) ;
#10 = DESIGN_CONTEXT ( 'detailed design', #64, 'design' ) ;
#11 = ORIENTED_EDGE ( 'NONE', *, *, #200, .T. ) ;
#12 = LINE ( 'NONE', #63, #132 ) ;
#13 = MECHANICAL_CONTEXT ( 'NONE', #3, 'mechanical' ) ;
#14 = DIRECTION ( 'NONE',  ( 1.000000000000000000, 0.000000000000000000, 0.000000000000000000 ) ) ;
#15 = ADVANCED_FACE ( 'NONE', ( #140 ), #166, .T. ) ;
#16 = DATE_AND_TIME ( #167, #188 ) ;
#17 = DIRECTION ( 'NONE',  ( 1.000000000000000000, 0.000000000000000000, 0.000000000000000000 ) ) ;
#18 = UNCERTAINTY_MEASURE_WITH_UNIT (LENGTH_MEASURE( 1.000000000000000082E-05 ), #237, 'distance_accuracy_value', 'NONE');
#19 = DIRECTION ( 'NONE',  ( 0.000000000000000000, 0.000000000000000000, 1.000000000000000000 ) ) ;
#20 = CLOSED_SHELL ( 'NONE', ( #215, #141, #243, #133, #298, #98, #264, #15, #23 ) ) ;
#21 = APPROVAL_STATUS ( 'not_yet_approved' ) ;
#22 = DIRECTION ( 'NONE',  ( -0.000000000000000000, -0.000000000000000000, -1.000000000000000000 ) ) ;
#23 = ADVANCED_FACE ( 'NONE', ( #143 ), #56, .F. ) ;
#24 = PRODUCT_DEFINITION_FORMATION_WITH_SPECIFIED_SOURCE ( 'LIBOVOLNÝ', '', #155, .NOT_KNOWN. ) ;
#25 = DATE_AND_TIME ( #95, #158 ) ;
#26 = CARTESIAN_POINT ( 'NONE',  ( 0.000000000000000000, 0.000000000000000000, 5.199999999999982414 ) ) ;
#27 = LINE ( 'NONE', #72, #119 ) ;
#28 = CARTESIAN_POINT ( 'NONE',  ( 3.750000000000000000, 4.592425496802573972E-16, 5.199999999999982414 ) ) ;
#29 = CARTESIAN_POINT ( 'NONE',  ( 0.000000000000000000, 0.000000000000000000, 635.0000000000000000 ) ) ;
#30 = VERTEX_POINT ( 'NONE', #288 ) ;
#31 = EDGE_CURVE ( 'NONE', #224, #127, #221, .T. ) ;
#32 = AXIS2_PLACEMENT_3D ( 'NONE', #210, #189, #185 ) ;
#33 = APPROVAL_PERSON_ORGANIZATION ( #121, #130, #88 ) ;
#34 = ORIENTED_EDGE ( 'NONE', *, *, #179, .F. ) ;
#35 = MANIFOLD_SOLID_BREP ( 'Zaoblit1', #20 ) ;
#36 = ORIENTED_EDGE ( 'NONE', *, *, #267, .F. ) ;
#37 = FACE_OUTER_BOUND ( 'NONE', #8, .T. ) ;
#38 = CALENDAR_DATE ( 2022, 20, 6 ) ;
#39 = CARTESIAN_POINT ( 'NONE',  ( 0.000000000000000000, 0.000000000000000000, 5.199999999999982414 ) ) ;
#40 = CIRCLE ( 'NONE', #197, 6.000000000000000888 ) ;
#41 = CC_DESIGN_PERSON_AND_ORGANIZATION_ASSIGNMENT ( #67, #90, ( #24 ) ) ;
#42 = PERSON_AND_ORGANIZATION_ROLE ( 'design_owner' ) ;
#43 = CARTESIAN_POINT ( 'NONE',  ( 0.000000000000000000, 0.000000000000000000, 5.000000000000000000 ) ) ;
#44 = APPROVAL_DATE_TIME ( #136, #202 ) ;
#45 = DIRECTION ( 'NONE',  ( 1.000000000000000000, 0.000000000000000000, 0.000000000000000000 ) ) ;
#46 = APPLICATION_PROTOCOL_DEFINITION ( 'international standard', 'config_control_design', 1994, #64 ) ;
#47 = CARTESIAN_POINT ( 'NONE',  ( 0.000000000000000000, 0.000000000000000000, 635.0000000000000000 ) ) ;
#48 = AXIS2_PLACEMENT_3D ( 'NONE', #26, #148, #242 ) ;
#49 = CARTESIAN_POINT ( 'NONE',  ( 0.000000000000000000, 0.000000000000000000, 5.000000000000000000 ) ) ;
#50 = CC_DESIGN_PERSON_AND_ORGANIZATION_ASSIGNMENT ( #306, #42, ( #155 ) ) ;
#51 =( NAMED_UNIT ( * ) PLANE_ANGLE_UNIT ( ) SI_UNIT ( $, .RADIAN. ) );
#52 = LOCAL_TIME ( 11, 50, 16.00000000000000000, #251 ) ;
#53 = EDGE_CURVE ( 'NONE', #204, #180, #40, .T. ) ;
#54 = EDGE_LOOP ( 'NONE', ( #297, #81, #199, #152 ) ) ;
#55 = EDGE_LOOP ( 'NONE', ( #103, #274, #248, #201 ) ) ;
#56 = TOROIDAL_SURFACE ( 'NONE', #92, 3.949999999999999734, 0.2000000000000000111 ) ;
#57 = ORGANIZATION ( 'NEURÈENÝ', 'NEURÈENÝ', '' ) ;
#58 = DIRECTION ( 'NONE',  ( 0.000000000000000000, 0.000000000000000000, 1.000000000000000000 ) ) ;
#59 = PRODUCT_DEFINITION_SHAPE ( 'NONE', 'NONE',  #255 ) ;
#60 = COORDINATED_UNIVERSAL_TIME_OFFSET ( 1, 0, .AHEAD. ) ;
#61 = ORIENTED_EDGE ( 'NONE', *, *, #276, .T. ) ;
#62 = APPROVAL_DATE_TIME ( #16, #303 ) ;
#63 = CARTESIAN_POINT ( 'NONE',  ( 6.000000000000000888, 7.347880794884120722E-16, 5.000000000000000000 ) ) ;
#64 = APPLICATION_CONTEXT ( 'configuration controlled 3d designs of mechanical parts and assemblies' ) ;
#65 = DATE_AND_TIME ( #182, #73 ) ;
#66 = PLANE ( 'NONE',  #176 ) ;
#67 = PERSON_AND_ORGANIZATION ( #101, #57 ) ;
#68 = DIRECTION ( 'NONE',  ( 1.000000000000000000, 0.000000000000000000, 0.000000000000000000 ) ) ;
#69 = APPROVAL_ROLE ( '' ) ;
#70 = DIRECTION ( 'NONE',  ( -1.000000000000000000, 0.000000000000000000, 0.000000000000000000 ) ) ;
#71 = AXIS2_PLACEMENT_3D ( 'NONE', #277, #89, #14 ) ;
#72 = CARTESIAN_POINT ( 'NONE',  ( -6.000000000000000888, 0.000000000000000000, 5.000000000000000000 ) ) ;
#73 = LOCAL_TIME ( 11, 50, 16.00000000000000000, #86 ) ;
#74 = DIRECTION ( 'NONE',  ( 0.000000000000000000, 0.000000000000000000, 1.000000000000000000 ) ) ;
#75 = VECTOR ( 'NONE', #181, 1000.000000000000000 ) ;
#76 = CC_DESIGN_PERSON_AND_ORGANIZATION_ASSIGNMENT ( #209, #184, ( #255 ) ) ;
#77 = EDGE_LOOP ( 'NONE', ( #131, #61 ) ) ;
#78 = ORIENTED_EDGE ( 'NONE', *, *, #267, .T. ) ;
#79 = ORIENTED_EDGE ( 'NONE', *, *, #53, .F. ) ;
#80 = LOCAL_TIME ( 11, 50, 16.00000000000000000, #191 ) ;
#81 = ORIENTED_EDGE ( 'NONE', *, *, #174, .T. ) ;
#82 = VERTEX_POINT ( 'NONE', #161 ) ;
#83 = AXIS2_PLACEMENT_3D ( 'NONE', #234, #58, #250 ) ;
#84 = LINE ( 'NONE', #282, #75 ) ;
#85 = ADVANCED_BREP_SHAPE_REPRESENTATION ( 'a07b', ( #35, #195 ), #198 ) ;
#86 = COORDINATED_UNIVERSAL_TIME_OFFSET ( 1, 0, .AHEAD. ) ;
#87 = DIRECTION ( 'NONE',  ( 1.000000000000000000, 0.000000000000000000, -0.000000000000000000 ) ) ;
#88 = APPROVAL_ROLE ( '' ) ;
#89 = DIRECTION ( 'NONE',  ( -0.000000000000000000, -0.000000000000000000, -1.000000000000000000 ) ) ;
#90 = PERSON_AND_ORGANIZATION_ROLE ( 'design_supplier' ) ;
#91 = DIRECTION ( 'NONE',  ( 0.000000000000000000, -1.000000000000000000, 0.000000000000000000 ) ) ;
#92 = AXIS2_PLACEMENT_3D ( 'NONE', #212, #117, #17 ) ;
#93 = AXIS2_PLACEMENT_3D ( 'NONE', #99, #263, #100 ) ;
#94 = DIRECTION ( 'NONE',  ( 0.000000000000000000, 0.000000000000000000, 1.000000000000000000 ) ) ;
#95 = CALENDAR_DATE ( 2022, 20, 6 ) ;
#96 = FACE_OUTER_BOUND ( 'NONE', #77, .T. ) ;
#97 =( NAMED_UNIT ( * ) SI_UNIT ( $, .STERADIAN. ) SOLID_ANGLE_UNIT ( ) );
#98 = ADVANCED_FACE ( 'NONE', ( #302 ), #66, .F. ) ;
#99 = CARTESIAN_POINT ( 'NONE',  ( 0.000000000000000000, 0.000000000000000000, 5.000000000000000000 ) ) ;
#100 = DIRECTION ( 'NONE',  ( 1.000000000000000000, 0.000000000000000000, 0.000000000000000000 ) ) ;
#101 = PERSON ( 'NEURÈENÝ', 'NEURÈENÝ', 'NEURÈENÝ', ('NEURÈENÝ'), ('NEURÈENÝ'), ('NEURÈENÝ') ) ;
#102 = SECURITY_CLASSIFICATION ( '', '', #186 ) ;
#103 = ORIENTED_EDGE ( 'NONE', *, *, #164, .F. ) ;
#104 = ORIENTED_EDGE ( 'NONE', *, *, #4, .T. ) ;
#105 = EDGE_CURVE ( 'NONE', #30, #82, #240, .T. ) ;
#106 = ORIENTED_EDGE ( 'NONE', *, *, #247, .F. ) ;
#107 = APPROVAL_PERSON_ORGANIZATION ( #258, #303, #69 ) ;
#108 = ORIENTED_EDGE ( 'NONE', *, *, #247, .T. ) ;
#109 = CARTESIAN_POINT ( 'NONE',  ( 3.949999999999999734, 0.000000000000000000, 4.999999999999991118 ) ) ;
#110 = EDGE_CURVE ( 'NONE', #226, #214, #162, .T. ) ;
#111 = DIRECTION ( 'NONE',  ( 1.224646799147353207E-16, 1.000000000000000000, -0.000000000000000000 ) ) ;
#112 = DATE_TIME_ROLE ( 'creation_date' ) ;
#113 = CYLINDRICAL_SURFACE ( 'NONE', #32, 3.750000000000000000 ) ;
#114 = PERSON_AND_ORGANIZATION ( #101, #57 ) ;
#115 = EDGE_CURVE ( 'NONE', #134, #224, #283, .T. ) ;
#116 = DIRECTION ( 'NONE',  ( 0.000000000000000000, 0.000000000000000000, 1.000000000000000000 ) ) ;
#117 = DIRECTION ( 'NONE',  ( 0.000000000000000000, 0.000000000000000000, 1.000000000000000000 ) ) ;
#118 = CARTESIAN_POINT ( 'NONE',  ( 0.000000000000000000, 0.000000000000000000, 0.000000000000000000 ) ) ;
#119 = VECTOR ( 'NONE', #291, 1000.000000000000000 ) ;
#120 = CARTESIAN_POINT ( 'NONE',  ( 6.000000000000000888, 7.347880794884120722E-16, 5.000000000000000000 ) ) ;
#121 = PERSON_AND_ORGANIZATION ( #101, #57 ) ;
#122 = DIRECTION ( 'NONE',  ( 0.000000000000000000, 0.000000000000000000, 1.000000000000000000 ) ) ;
#123 = CARTESIAN_POINT ( 'NONE',  ( -3.750000000000000000, 0.000000000000000000, 635.0000000000000000 ) ) ;
#124 = DIRECTION ( 'NONE',  ( -1.000000000000000000, 0.000000000000000000, 0.000000000000000000 ) ) ;
#125 = CC_DESIGN_DATE_AND_TIME_ASSIGNMENT ( #65, #160, ( #102 ) ) ;
#126 = CARTESIAN_POINT ( 'NONE',  ( 0.000000000000000000, 0.000000000000000000, 635.0000000000000000 ) ) ;
#127 = VERTEX_POINT ( 'NONE', #109 ) ;
#128 = VECTOR ( 'NONE', #266, 1000.000000000000000 ) ;
#129 = ORIENTED_EDGE ( 'NONE', *, *, #218, .F. ) ;
#130 = APPROVAL ( #139, 'NEURÈENÝ' ) ;
#131 = ORIENTED_EDGE ( 'NONE', *, *, #53, .T. ) ;
#132 = VECTOR ( 'NONE', #163, 1000.000000000000000 ) ;
#133 = ADVANCED_FACE ( 'NONE', ( #142 ), #304, .T. ) ;
#134 = VERTEX_POINT ( 'NONE', #229 ) ;
#135 = CARTESIAN_POINT ( 'NONE',  ( -3.949999999999999734, 4.837354856632044071E-16, 5.199999999999982414 ) ) ;
#136 = DATE_AND_TIME ( #38, #52 ) ;
#137 = AXIS2_PLACEMENT_3D ( 'NONE', #280, #91, #232 ) ;
#138 = DIRECTION ( 'NONE',  ( -0.000000000000000000, -0.000000000000000000, -1.000000000000000000 ) ) ;
#139 = APPROVAL_STATUS ( 'not_yet_approved' ) ;
#140 = FACE_OUTER_BOUND ( 'NONE', #273, .T. ) ;
#141 = ADVANCED_FACE ( 'NONE', ( #37 ), #113, .T. ) ;
#142 = FACE_OUTER_BOUND ( 'NONE', #246, .T. ) ;
#143 = FACE_OUTER_BOUND ( 'NONE', #175, .T. ) ;
#144 = AXIS2_PLACEMENT_3D ( 'NONE', #47, #116, #87 ) ;
#145 = PERSON_AND_ORGANIZATION_ROLE ( 'creator' ) ;
#146 = APPROVAL_PERSON_ORGANIZATION ( #253, #202, #279 ) ;
#147 = DIRECTION ( 'NONE',  ( 1.000000000000000000, 0.000000000000000000, 0.000000000000000000 ) ) ;
#148 = DIRECTION ( 'NONE',  ( 0.000000000000000000, 0.000000000000000000, 1.000000000000000000 ) ) ;
#149 = DIRECTION ( 'NONE',  ( 0.000000000000000000, 0.000000000000000000, 1.000000000000000000 ) ) ;
#150 = CARTESIAN_POINT ( 'NONE',  ( 0.000000000000000000, 0.000000000000000000, 0.000000000000000000 ) ) ;
#151 = AXIS2_PLACEMENT_3D ( 'NONE', #172, #122, #239 ) ;
#152 = ORIENTED_EDGE ( 'NONE', *, *, #200, .F. ) ;
#153 = ORIENTED_EDGE ( 'NONE', *, *, #218, .T. ) ;
#154 = VERTEX_POINT ( 'NONE', #299 ) ;
#155 = PRODUCT ( 'a07b', 'a07b', '', ( #13 ) ) ;
#156 = CC_DESIGN_PERSON_AND_ORGANIZATION_ASSIGNMENT ( #114, #145, ( #24 ) ) ;
#157 = EDGE_LOOP ( 'NONE', ( #36, #227 ) ) ;
#158 = LOCAL_TIME ( 11, 50, 16.00000000000000000, #60 ) ;
#159 = DIRECTION ( 'NONE',  ( -1.000000000000000000, 0.000000000000000000, 0.000000000000000000 ) ) ;
#160 = DATE_TIME_ROLE ( 'classification_date' ) ;
#161 = CARTESIAN_POINT ( 'NONE',  ( -6.000000000000000888, 0.000000000000000000, 0.000000000000000000 ) ) ;
#162 = CIRCLE ( 'NONE', #245, 3.750000000000000000 ) ;
#163 = DIRECTION ( 'NONE',  ( -0.000000000000000000, -0.000000000000000000, -1.000000000000000000 ) ) ;
#164 = EDGE_CURVE ( 'NONE', #214, #224, #84, .T. ) ;
#165 = DIRECTION ( 'NONE',  ( 1.000000000000000000, 0.000000000000000000, 0.000000000000000000 ) ) ;
#166 = PLANE ( 'NONE',  #144 ) ;
#167 = CALENDAR_DATE ( 2022, 20, 6 ) ;
#168 = EDGE_CURVE ( 'NONE', #134, #154, #223, .T. ) ;
#169 = FACE_OUTER_BOUND ( 'NONE', #183, .T. ) ;
#170 = CC_DESIGN_APPROVAL ( #130, ( #255 ) ) ;
#171 = CIRCLE ( 'NONE', #270, 6.000000000000000888 ) ;
#172 = CARTESIAN_POINT ( 'NONE',  ( 0.000000000000000000, 0.000000000000000000, 5.199999999999982414 ) ) ;
#173 = CARTESIAN_POINT ( 'NONE',  ( 0.000000000000000000, 0.000000000000000000, 5.000000000000000000 ) ) ;
#174 = EDGE_CURVE ( 'NONE', #180, #30, #12, .T. ) ;
#175 = EDGE_LOOP ( 'NONE', ( #7, #129, #244, #295 ) ) ;
#176 = AXIS2_PLACEMENT_3D ( 'NONE', #252, #205, #257 ) ;
#177 = CIRCLE ( 'NONE', #262, 3.750000000000000000 ) ;
#178 = ORIENTED_EDGE ( 'NONE', *, *, #31, .F. ) ;
#179 = EDGE_CURVE ( 'NONE', #226, #134, #254, .T. ) ;
#180 = VERTEX_POINT ( 'NONE', #120 ) ;
#181 = DIRECTION ( 'NONE',  ( -0.000000000000000000, -0.000000000000000000, -1.000000000000000000 ) ) ;
#182 = CALENDAR_DATE ( 2022, 20, 6 ) ;
#183 = EDGE_LOOP ( 'NONE', ( #203, #271, #106, #178 ) ) ;
#184 = PERSON_AND_ORGANIZATION_ROLE ( 'creator' ) ;
#185 = DIRECTION ( 'NONE',  ( -1.000000000000000000, 0.000000000000000000, 0.000000000000000000 ) ) ;
#186 = SECURITY_CLASSIFICATION_LEVEL ( 'unclassified' ) ;
#187 = DIRECTION ( 'NONE',  ( 0.000000000000000000, 0.000000000000000000, 1.000000000000000000 ) ) ;
#188 = LOCAL_TIME ( 11, 50, 16.00000000000000000, #284 ) ;
#189 = DIRECTION ( 'NONE',  ( -0.000000000000000000, -0.000000000000000000, -1.000000000000000000 ) ) ;
#190 = EDGE_CURVE ( 'NONE', #214, #226, #177, .T. ) ;
#191 = COORDINATED_UNIVERSAL_TIME_OFFSET ( 1, 0, .AHEAD. ) ;
#192 = DIRECTION ( 'NONE',  ( 1.000000000000000000, 0.000000000000000000, 0.000000000000000000 ) ) ;
#193 = FACE_OUTER_BOUND ( 'NONE', #55, .T. ) ;
#194 = AXIS2_PLACEMENT_3D ( 'NONE', #39, #94, #45 ) ;
#195 = AXIS2_PLACEMENT_3D ( 'NONE', #118, #260, #211 ) ;
#196 = CYLINDRICAL_SURFACE ( 'NONE', #249, 3.750000000000000000 ) ;
#197 = AXIS2_PLACEMENT_3D ( 'NONE', #43, #187, #68 ) ;
#198 =( GEOMETRIC_REPRESENTATION_CONTEXT ( 3 ) GLOBAL_UNCERTAINTY_ASSIGNED_CONTEXT ( ( #18 ) ) GLOBAL_UNIT_ASSIGNED_CONTEXT ( ( #237, #51, #97 ) ) REPRESENTATION_CONTEXT ( 'NONE', 'WORKASPACE' ) );
#199 = ORIENTED_EDGE ( 'NONE', *, *, #105, .T. ) ;
#200 = EDGE_CURVE ( 'NONE', #204, #82, #27, .T. ) ;
#201 = ORIENTED_EDGE ( 'NONE', *, *, #115, .T. ) ;
#202 = APPROVAL ( #21, 'NEURÈENÝ' ) ;
#203 = ORIENTED_EDGE ( 'NONE', *, *, #115, .F. ) ;
#204 = VERTEX_POINT ( 'NONE', #217 ) ;
#205 = DIRECTION ( 'NONE',  ( 0.000000000000000000, 0.000000000000000000, 1.000000000000000000 ) ) ;
#206 = ORIENTED_EDGE ( 'NONE', *, *, #190, .F. ) ;
#207 = CIRCLE ( 'NONE', #93, 3.949999999999999734 ) ;
#208 = CC_DESIGN_DATE_AND_TIME_ASSIGNMENT ( #25, #112, ( #255 ) ) ;
#209 = PERSON_AND_ORGANIZATION ( #101, #57 ) ;
#210 = CARTESIAN_POINT ( 'NONE',  ( 0.000000000000000000, 0.000000000000000000, 635.0000000000000000 ) ) ;
#211 = DIRECTION ( 'NONE',  ( 1.000000000000000000, 0.000000000000000000, 0.000000000000000000 ) ) ;
#212 = CARTESIAN_POINT ( 'NONE',  ( 0.000000000000000000, 0.000000000000000000, 5.199999999999982414 ) ) ;
#213 = AXIS2_PLACEMENT_3D ( 'NONE', #259, #138, #159 ) ;
#214 = VERTEX_POINT ( 'NONE', #220 ) ;
#215 = ADVANCED_FACE ( 'NONE', ( #169 ), #296, .F. ) ;
#216 = CYLINDRICAL_SURFACE ( 'NONE', #305, 6.000000000000000888 ) ;
#217 = CARTESIAN_POINT ( 'NONE',  ( -6.000000000000000888, 0.000000000000000000, 5.000000000000000000 ) ) ;
#218 = EDGE_CURVE ( 'NONE', #224, #134, #286, .T. ) ;
#219 = AXIS2_PLACEMENT_3D ( 'NONE', #135, #111, #228 ) ;
#220 = CARTESIAN_POINT ( 'NONE',  ( 3.750000000000000000, 4.592425496802573972E-16, 635.0000000000000000 ) ) ;
#221 = CIRCLE ( 'NONE', #137, 0.1999999999999996503 ) ;
#222 = PRODUCT_RELATED_PRODUCT_CATEGORY ( 'detail', '', ( #155 ) ) ;
#223 = CIRCLE ( 'NONE', #219, 0.1999999999999996503 ) ;
#224 = VERTEX_POINT ( 'NONE', #28 ) ;
#225 = ORIENTED_EDGE ( 'NONE', *, *, #164, .T. ) ;
#226 = VERTEX_POINT ( 'NONE', #123 ) ;
#227 = ORIENTED_EDGE ( 'NONE', *, *, #105, .F. ) ;
#228 = DIRECTION ( 'NONE',  ( -1.000000000000000000, 1.224646799147353454E-16, 0.000000000000000000 ) ) ;
#229 = CARTESIAN_POINT ( 'NONE',  ( -3.750000000000000000, 0.000000000000000000, 5.199999999999982414 ) ) ;
#230 = CARTESIAN_POINT ( 'NONE',  ( -3.750000000000000000, 0.000000000000000000, 635.0000000000000000 ) ) ;
#231 = SHAPE_DEFINITION_REPRESENTATION ( #59, #85 ) ;
#232 = DIRECTION ( 'NONE',  ( 0.000000000000000000, 0.000000000000000000, -1.000000000000000000 ) ) ;
#233 = APPLICATION_PROTOCOL_DEFINITION ( 'international standard', 'config_control_design', 1994, #3 ) ;
#234 = CARTESIAN_POINT ( 'NONE',  ( 0.000000000000000000, 0.000000000000000000, 0.000000000000000000 ) ) ;
#235 = CC_DESIGN_APPROVAL ( #303, ( #24 ) ) ;
#236 = APPROVAL_DATE_TIME ( #287, #130 ) ;
#237 =( LENGTH_UNIT ( ) NAMED_UNIT ( * ) SI_UNIT ( .MILLI., .METRE. ) );
#238 = FACE_BOUND ( 'NONE', #294, .T. ) ;
#239 = DIRECTION ( 'NONE',  ( 1.000000000000000000, 0.000000000000000000, 0.000000000000000000 ) ) ;
#240 = CIRCLE ( 'NONE', #83, 6.000000000000000888 ) ;
#241 = AXIS2_PLACEMENT_3D ( 'NONE', #150, #74, #307 ) ;
#242 = DIRECTION ( 'NONE',  ( 1.000000000000000000, 0.000000000000000000, 0.000000000000000000 ) ) ;
#243 = ADVANCED_FACE ( 'NONE', ( #261 ), #216, .T. ) ;
#244 = ORIENTED_EDGE ( 'NONE', *, *, #31, .T. ) ;
#245 = AXIS2_PLACEMENT_3D ( 'NONE', #285, #19, #165 ) ;
#246 = EDGE_LOOP ( 'NONE', ( #269, #79, #11, #78 ) ) ;
#247 = EDGE_CURVE ( 'NONE', #127, #154, #207, .T. ) ;
#248 = ORIENTED_EDGE ( 'NONE', *, *, #179, .T. ) ;
#249 = AXIS2_PLACEMENT_3D ( 'NONE', #29, #22, #70 ) ;
#250 = DIRECTION ( 'NONE',  ( 1.000000000000000000, 0.000000000000000000, 0.000000000000000000 ) ) ;
#251 = COORDINATED_UNIVERSAL_TIME_OFFSET ( 1, 0, .AHEAD. ) ;
#252 = CARTESIAN_POINT ( 'NONE',  ( 0.000000000000000000, 0.000000000000000000, 0.000000000000000000 ) ) ;
#253 = PERSON_AND_ORGANIZATION ( #101, #57 ) ;
#254 = LINE ( 'NONE', #230, #128 ) ;
#255 = PRODUCT_DEFINITION ( 'NEZNÁMÝ', '', #24, #10 ) ;
#256 = CALENDAR_DATE ( 2022, 20, 6 ) ;
#257 = DIRECTION ( 'NONE',  ( 1.000000000000000000, 0.000000000000000000, -0.000000000000000000 ) ) ;
#258 = PERSON_AND_ORGANIZATION ( #101, #57 ) ;
#259 = CARTESIAN_POINT ( 'NONE',  ( 0.000000000000000000, 0.000000000000000000, 5.000000000000000000 ) ) ;
#260 = DIRECTION ( 'NONE',  ( 0.000000000000000000, 0.000000000000000000, 1.000000000000000000 ) ) ;
#261 = FACE_OUTER_BOUND ( 'NONE', #54, .T. ) ;
#262 = AXIS2_PLACEMENT_3D ( 'NONE', #126, #149, #192 ) ;
#263 = DIRECTION ( 'NONE',  ( -0.000000000000000000, -0.000000000000000000, -1.000000000000000000 ) ) ;
#264 = ADVANCED_FACE ( 'NONE', ( #193 ), #196, .T. ) ;
#265 = DIRECTION ( 'NONE',  ( 0.000000000000000000, 0.000000000000000000, 1.000000000000000000 ) ) ;
#266 = DIRECTION ( 'NONE',  ( -0.000000000000000000, -0.000000000000000000, -1.000000000000000000 ) ) ;
#267 = EDGE_CURVE ( 'NONE', #82, #30, #9, .T. ) ;
#268 = ORIENTED_EDGE ( 'NONE', *, *, #190, .T. ) ;
#269 = ORIENTED_EDGE ( 'NONE', *, *, #174, .F. ) ;
#270 = AXIS2_PLACEMENT_3D ( 'NONE', #49, #292, #147 ) ;
#271 = ORIENTED_EDGE ( 'NONE', *, *, #168, .T. ) ;
#272 = CC_DESIGN_PERSON_AND_ORGANIZATION_ASSIGNMENT ( #281, #300, ( #102 ) ) ;
#273 = EDGE_LOOP ( 'NONE', ( #301, #268 ) ) ;
#274 = ORIENTED_EDGE ( 'NONE', *, *, #110, .F. ) ;
#275 = CIRCLE ( 'NONE', #71, 3.949999999999999734 ) ;
#276 = EDGE_CURVE ( 'NONE', #180, #204, #171, .T. ) ;
#277 = CARTESIAN_POINT ( 'NONE',  ( 0.000000000000000000, 0.000000000000000000, 5.000000000000000000 ) ) ;
#278 = CC_DESIGN_APPROVAL ( #202, ( #102 ) ) ;
#279 = APPROVAL_ROLE ( '' ) ;
#280 = CARTESIAN_POINT ( 'NONE',  ( 3.949999999999999734, 0.000000000000000000, 5.199999999999982414 ) ) ;
#281 = PERSON_AND_ORGANIZATION ( #101, #57 ) ;
#282 = CARTESIAN_POINT ( 'NONE',  ( 3.750000000000000000, 4.592425496802573972E-16, 635.0000000000000000 ) ) ;
#283 = CIRCLE ( 'NONE', #194, 3.750000000000000000 ) ;
#284 = COORDINATED_UNIVERSAL_TIME_OFFSET ( 1, 0, .AHEAD. ) ;
#285 = CARTESIAN_POINT ( 'NONE',  ( 0.000000000000000000, 0.000000000000000000, 635.0000000000000000 ) ) ;
#286 = CIRCLE ( 'NONE', #151, 3.750000000000000000 ) ;
#287 = DATE_AND_TIME ( #256, #80 ) ;
#288 = CARTESIAN_POINT ( 'NONE',  ( 6.000000000000000888, 7.347880794884120722E-16, 0.000000000000000000 ) ) ;
#289 = APPROVAL_STATUS ( 'not_yet_approved' ) ;
#290 = PLANE ( 'NONE',  #293 ) ;
#291 = DIRECTION ( 'NONE',  ( -0.000000000000000000, -0.000000000000000000, -1.000000000000000000 ) ) ;
#292 = DIRECTION ( 'NONE',  ( 0.000000000000000000, 0.000000000000000000, 1.000000000000000000 ) ) ;
#293 = AXIS2_PLACEMENT_3D ( 'NONE', #173, #265, #1 ) ;
#294 = EDGE_LOOP ( 'NONE', ( #108, #104 ) ) ;
#295 = ORIENTED_EDGE ( 'NONE', *, *, #4, .F. ) ;
#296 = TOROIDAL_SURFACE ( 'NONE', #48, 3.949999999999999734, 0.2000000000000000111 ) ;
#297 = ORIENTED_EDGE ( 'NONE', *, *, #276, .F. ) ;
#298 = ADVANCED_FACE ( 'NONE', ( #238, #96 ), #290, .T. ) ;
#299 = CARTESIAN_POINT ( 'NONE',  ( -3.949999999999999734, 4.837354856632044071E-16, 4.999999999999991118 ) ) ;
#300 = PERSON_AND_ORGANIZATION_ROLE ( 'classification_officer' ) ;
#301 = ORIENTED_EDGE ( 'NONE', *, *, #110, .T. ) ;
#302 = FACE_OUTER_BOUND ( 'NONE', #157, .T. ) ;
#303 = APPROVAL ( #289, 'NEURÈENÝ' ) ;
#304 = CYLINDRICAL_SURFACE ( 'NONE', #213, 6.000000000000000888 ) ;
#305 = AXIS2_PLACEMENT_3D ( 'NONE', #2, #5, #124 ) ;
#306 = PERSON_AND_ORGANIZATION ( #101, #57 ) ;
#307 = DIRECTION ( 'NONE',  ( 1.000000000000000000, 0.000000000000000000, 0.000000000000000000 ) ) ;
ENDSEC;
END-ISO-10303-21;
