ISO-10303-21;
HEADER;
FILE_DESCRIPTION (( 'STEP AP203' ),
    '1' );
FILE_NAME ('fee4.STEP',
    '2022-06-20T09:18:44',
    ( '' ),
    ( '' ),
    'SwSTEP 2.0',
    'SolidWorks 2019',
    '' );
FILE_SCHEMA (( 'CONFIG_CONTROL_DESIGN' ));
ENDSEC;

DATA;
#1 = DIRECTION ( 'NONE',  ( 1.000000000000000000, 0.000000000000000000, 0.000000000000000000 ) ) ;
#2 = DIRECTION ( 'NONE',  ( -0.000000000000000000, -0.000000000000000000, -1.000000000000000000 ) ) ;
#3 = EDGE_CURVE ( 'NONE', #65, #38, #142, .T. ) ;
#4 = CIRCLE ( 'NONE', #45, 12.50000000000000000 ) ;
#5 = AXIS2_PLACEMENT_3D ( 'NONE', #166, #75, #287 ) ;
#6 = DIRECTION ( 'NONE',  ( 0.000000000000000000, 0.000000000000000000, 1.000000000000000000 ) ) ;
#7 = DIRECTION ( 'NONE',  ( 1.000000000000000000, 0.000000000000000000, -0.000000000000000000 ) ) ;
#8 = DATE_AND_TIME ( #10, #189 ) ;
#9 = AXIS2_PLACEMENT_3D ( 'NONE', #146, #289, #192 ) ;
#10 = CALENDAR_DATE ( 2022, 20, 6 ) ;
#11 = EDGE_LOOP ( 'NONE', ( #155, #105, #199, #158 ) ) ;
#12 =( NAMED_UNIT ( * ) SI_UNIT ( $, .STERADIAN. ) SOLID_ANGLE_UNIT ( ) );
#13 = PRODUCT_DEFINITION_SHAPE ( 'NONE', 'NONE',  #157 ) ;
#14 = ORIENTED_EDGE ( 'NONE', *, *, #55, .F. ) ;
#15 = DATE_AND_TIME ( #228, #152 ) ;
#16 = PRODUCT_DEFINITION_FORMATION_WITH_SPECIFIED_SOURCE ( 'LIBOVOLNÝ', '', #272, .NOT_KNOWN. ) ;
#17 = ORIENTED_EDGE ( 'NONE', *, *, #222, .F. ) ;
#18 = ORIENTED_EDGE ( 'NONE', *, *, #208, .F. ) ;
#19 = CARTESIAN_POINT ( 'NONE',  ( 0.000000000000000000, 0.000000000000000000, 10.00000000000000000 ) ) ;
#20 = CIRCLE ( 'NONE', #28, 16.00000000000000000 ) ;
#21 = DIRECTION ( 'NONE',  ( -1.000000000000000000, 0.000000000000000000, 0.000000000000000000 ) ) ;
#22 = EDGE_LOOP ( 'NONE', ( #83, #88, #136, #301 ) ) ;
#23 = DIRECTION ( 'NONE',  ( 0.000000000000000000, 0.000000000000000000, 1.000000000000000000 ) ) ;
#24 = FACE_OUTER_BOUND ( 'NONE', #36, .T. ) ;
#25 = EDGE_CURVE ( 'NONE', #203, #132, #257, .T. ) ;
#26 = APPROVAL ( #33, 'NEURÈENÝ' ) ;
#27 = CARTESIAN_POINT ( 'NONE',  ( 0.000000000000000000, 0.000000000000000000, 210.0000000000000284 ) ) ;
#28 = AXIS2_PLACEMENT_3D ( 'NONE', #50, #144, #290 ) ;
#29 = APPROVAL_ROLE ( '' ) ;
#30 = PERSON_AND_ORGANIZATION_ROLE ( 'classification_officer' ) ;
#31 = CIRCLE ( 'NONE', #139, 16.00000000000000000 ) ;
#32 = CIRCLE ( 'NONE', #5, 12.70000000000000107 ) ;
#33 = APPROVAL_STATUS ( 'not_yet_approved' ) ;
#34 = CALENDAR_DATE ( 2022, 20, 6 ) ;
#35 = EDGE_CURVE ( 'NONE', #298, #65, #107, .T. ) ;
#36 = EDGE_LOOP ( 'NONE', ( #18, #41, #209, #84 ) ) ;
#37 = DATE_AND_TIME ( #296, #81 ) ;
#38 = VERTEX_POINT ( 'NONE', #277 ) ;
#39 = AXIS2_PLACEMENT_3D ( 'NONE', #213, #305, #303 ) ;
#40 =( GEOMETRIC_REPRESENTATION_CONTEXT ( 3 ) GLOBAL_UNCERTAINTY_ASSIGNED_CONTEXT ( ( #229 ) ) GLOBAL_UNIT_ASSIGNED_CONTEXT ( ( #252, #249, #12 ) ) REPRESENTATION_CONTEXT ( 'NONE', 'WORKASPACE' ) );
#41 = ORIENTED_EDGE ( 'NONE', *, *, #197, .T. ) ;
#42 = PRODUCT_RELATED_PRODUCT_CATEGORY ( 'detail', '', ( #272 ) ) ;
#43 = DIRECTION ( 'NONE',  ( -1.000000000000000000, 0.000000000000000000, 0.000000000000000000 ) ) ;
#44 = CARTESIAN_POINT ( 'NONE',  ( 0.000000000000000000, 0.000000000000000000, 210.0000000000000284 ) ) ;
#45 = AXIS2_PLACEMENT_3D ( 'NONE', #44, #260, #279 ) ;
#46 = CARTESIAN_POINT ( 'NONE',  ( 0.000000000000000000, 0.000000000000000000, 210.0000000000000284 ) ) ;
#47 = FACE_OUTER_BOUND ( 'NONE', #22, .T. ) ;
#48 = CC_DESIGN_PERSON_AND_ORGANIZATION_ASSIGNMENT ( #251, #30, ( #259 ) ) ;
#49 = FACE_OUTER_BOUND ( 'NONE', #103, .T. ) ;
#50 = CARTESIAN_POINT ( 'NONE',  ( 0.000000000000000000, 0.000000000000000000, 0.000000000000000000 ) ) ;
#51 = APPROVAL ( #275, 'NEURÈENÝ' ) ;
#52 = CARTESIAN_POINT ( 'NONE',  ( 12.50000000000000000, 1.530808498934191521E-15, 210.0000000000000284 ) ) ;
#53 = DIRECTION ( 'NONE',  ( -0.000000000000000000, -0.000000000000000000, -1.000000000000000000 ) ) ;
#54 = CARTESIAN_POINT ( 'NONE',  ( 0.000000000000000000, 0.000000000000000000, 10.19999999999998685 ) ) ;
#55 = EDGE_CURVE ( 'NONE', #38, #111, #31, .T. ) ;
#56 = ADVANCED_BREP_SHAPE_REPRESENTATION ( 'fee4', ( #106, #176 ), #40 ) ;
#57 = PERSON_AND_ORGANIZATION_ROLE ( 'creator' ) ;
#58 = APPROVAL_DATE_TIME ( #37, #51 ) ;
#59 = ADVANCED_FACE ( 'NONE', ( #256 ), #92, .T. ) ;
#60 = APPLICATION_PROTOCOL_DEFINITION ( 'international standard', 'config_control_design', 1994, #245 ) ;
#61 = ORIENTED_EDGE ( 'NONE', *, *, #186, .T. ) ;
#62 = DIRECTION ( 'NONE',  ( 1.000000000000000000, 0.000000000000000000, 0.000000000000000000 ) ) ;
#63 = CC_DESIGN_DATE_AND_TIME_ASSIGNMENT ( #15, #82, ( #157 ) ) ;
#64 = DATE_TIME_ROLE ( 'classification_date' ) ;
#65 = VERTEX_POINT ( 'NONE', #160 ) ;
#66 = EDGE_CURVE ( 'NONE', #295, #203, #4, .T. ) ;
#67 = AXIS2_PLACEMENT_3D ( 'NONE', #162, #248, #1 ) ;
#68 = ORIENTED_EDGE ( 'NONE', *, *, #133, .T. ) ;
#69 = DIRECTION ( 'NONE',  ( 0.000000000000000000, 0.000000000000000000, 1.000000000000000000 ) ) ;
#70 = DIRECTION ( 'NONE',  ( -0.000000000000000000, -0.000000000000000000, -1.000000000000000000 ) ) ;
#71 = CARTESIAN_POINT ( 'NONE',  ( 12.50000000000000000, 1.530808498934191521E-15, 210.0000000000000284 ) ) ;
#72 = TOROIDAL_SURFACE ( 'NONE', #108, 12.70000000000000107, 0.2000000000000000111 ) ;
#73 = DIRECTION ( 'NONE',  ( 1.000000000000000000, 0.000000000000000000, 0.000000000000000000 ) ) ;
#74 = CARTESIAN_POINT ( 'NONE',  ( -12.70000000000000107, 1.555301434917138630E-15, 9.999999999999992895 ) ) ;
#75 = DIRECTION ( 'NONE',  ( -0.000000000000000000, -0.000000000000000000, -1.000000000000000000 ) ) ;
#76 = AXIS2_PLACEMENT_3D ( 'NONE', #100, #262, #167 ) ;
#77 = CARTESIAN_POINT ( 'NONE',  ( -12.70000000000000107, 1.555301434917138630E-15, 10.19999999999998685 ) ) ;
#78 = FACE_OUTER_BOUND ( 'NONE', #236, .T. ) ;
#79 = LINE ( 'NONE', #168, #170 ) ;
#80 = CC_DESIGN_DATE_AND_TIME_ASSIGNMENT ( #227, #64, ( #259 ) ) ;
#81 = LOCAL_TIME ( 11, 18, 44.00000000000000000, #271 ) ;
#82 = DATE_TIME_ROLE ( 'creation_date' ) ;
#83 = ORIENTED_EDGE ( 'NONE', *, *, #25, .F. ) ;
#84 = ORIENTED_EDGE ( 'NONE', *, *, #115, .F. ) ;
#85 = APPROVAL_PERSON_ORGANIZATION ( #102, #239, #269 ) ;
#86 = ORIENTED_EDGE ( 'NONE', *, *, #270, .T. ) ;
#87 = COORDINATED_UNIVERSAL_TIME_OFFSET ( 1, 0, .AHEAD. ) ;
#88 = ORIENTED_EDGE ( 'NONE', *, *, #66, .F. ) ;
#89 = ORIENTED_EDGE ( 'NONE', *, *, #234, .T. ) ;
#90 = EDGE_LOOP ( 'NONE', ( #182, #185, #68, #17 ) ) ;
#91 = EDGE_LOOP ( 'NONE', ( #116, #214, #205, #292 ) ) ;
#92 = CYLINDRICAL_SURFACE ( 'NONE', #175, 12.50000000000000000 ) ;
#93 = DIRECTION ( 'NONE',  ( 0.000000000000000000, 0.000000000000000000, 1.000000000000000000 ) ) ;
#94 = LOCAL_TIME ( 11, 18, 44.00000000000000000, #226 ) ;
#95 = ADVANCED_FACE ( 'NONE', ( #47 ), #138, .T. ) ;
#96 = CARTESIAN_POINT ( 'NONE',  ( -12.50000000000000000, 0.000000000000000000, 10.19999999999998685 ) ) ;
#97 = DIRECTION ( 'NONE',  ( 1.000000000000000000, 0.000000000000000000, -0.000000000000000000 ) ) ;
#98 = CARTESIAN_POINT ( 'NONE',  ( 0.000000000000000000, 0.000000000000000000, 210.0000000000000284 ) ) ;
#99 = LINE ( 'NONE', #285, #163 ) ;
#100 = CARTESIAN_POINT ( 'NONE',  ( 0.000000000000000000, 0.000000000000000000, 10.00000000000000000 ) ) ;
#101 = PERSON_AND_ORGANIZATION ( #125, #233 ) ;
#102 = PERSON_AND_ORGANIZATION ( #125, #233 ) ;
#103 = EDGE_LOOP ( 'NONE', ( #173, #14 ) ) ;
#104 = APPLICATION_PROTOCOL_DEFINITION ( 'international standard', 'config_control_design', 1994, #255 ) ;
#105 = ORIENTED_EDGE ( 'NONE', *, *, #133, .F. ) ;
#106 = MANIFOLD_SOLID_BREP ( 'Zaoblit1', #128 ) ;
#107 = CIRCLE ( 'NONE', #300, 16.00000000000000000 ) ;
#108 = AXIS2_PLACEMENT_3D ( 'NONE', #54, #121, #193 ) ;
#109 = DIRECTION ( 'NONE',  ( 0.000000000000000000, 0.000000000000000000, 1.000000000000000000 ) ) ;
#110 = ADVANCED_FACE ( 'NONE', ( #254 ), #159, .T. ) ;
#111 = VERTEX_POINT ( 'NONE', #237 ) ;
#112 = ORIENTED_EDGE ( 'NONE', *, *, #3, .F. ) ;
#113 = VECTOR ( 'NONE', #70, 1000.000000000000000 ) ;
#114 = EDGE_LOOP ( 'NONE', ( #210, #89 ) ) ;
#115 = EDGE_CURVE ( 'NONE', #132, #253, #281, .T. ) ;
#116 = ORIENTED_EDGE ( 'NONE', *, *, #186, .F. ) ;
#117 = DIRECTION ( 'NONE',  ( -0.000000000000000000, -0.000000000000000000, -1.000000000000000000 ) ) ;
#118 = DIRECTION ( 'NONE',  ( 1.000000000000000000, 0.000000000000000000, 0.000000000000000000 ) ) ;
#119 = CC_DESIGN_SECURITY_CLASSIFICATION ( #259, ( #16 ) ) ;
#120 = CARTESIAN_POINT ( 'NONE',  ( 0.000000000000000000, 0.000000000000000000, 10.19999999999998685 ) ) ;
#121 = DIRECTION ( 'NONE',  ( 0.000000000000000000, 0.000000000000000000, 1.000000000000000000 ) ) ;
#122 = CARTESIAN_POINT ( 'NONE',  ( -16.00000000000000000, 0.000000000000000000, 10.00000000000000000 ) ) ;
#123 = AXIS2_PLACEMENT_3D ( 'NONE', #19, #283, #43 ) ;
#124 = APPROVAL_PERSON_ORGANIZATION ( #101, #26, #29 ) ;
#125 = PERSON ( 'NEURÈENÝ', 'NEURÈENÝ', 'NEURÈENÝ', ('NEURÈENÝ'), ('NEURÈENÝ'), ('NEURÈENÝ') ) ;
#126 = DIRECTION ( 'NONE',  ( 0.000000000000000000, 0.000000000000000000, 1.000000000000000000 ) ) ;
#127 = CARTESIAN_POINT ( 'NONE',  ( 0.000000000000000000, 0.000000000000000000, 0.000000000000000000 ) ) ;
#128 = CLOSED_SHELL ( 'NONE', ( #171, #59, #284, #110, #266, #154, #95, #238, #288 ) ) ;
#129 = SECURITY_CLASSIFICATION_LEVEL ( 'unclassified' ) ;
#130 = ORIENTED_EDGE ( 'NONE', *, *, #177, .T. ) ;
#131 = APPROVAL_DATE_TIME ( #8, #239 ) ;
#132 = VERTEX_POINT ( 'NONE', #280 ) ;
#133 = EDGE_CURVE ( 'NONE', #132, #156, #147, .T. ) ;
#134 = PERSON_AND_ORGANIZATION_ROLE ( 'creator' ) ;
#135 = CC_DESIGN_APPROVAL ( #239, ( #16 ) ) ;
#136 = ORIENTED_EDGE ( 'NONE', *, *, #222, .T. ) ;
#137 = DIRECTION ( 'NONE',  ( -0.000000000000000000, -0.000000000000000000, -1.000000000000000000 ) ) ;
#138 = CYLINDRICAL_SURFACE ( 'NONE', #258, 12.50000000000000000 ) ;
#139 = AXIS2_PLACEMENT_3D ( 'NONE', #278, #69, #302 ) ;
#140 = CARTESIAN_POINT ( 'NONE',  ( 0.000000000000000000, 0.000000000000000000, 210.0000000000000284 ) ) ;
#141 = CARTESIAN_POINT ( 'NONE',  ( 0.000000000000000000, 0.000000000000000000, 10.19999999999998685 ) ) ;
#142 = LINE ( 'NONE', #187, #232 ) ;
#143 = CYLINDRICAL_SURFACE ( 'NONE', #206, 16.00000000000000000 ) ;
#144 = DIRECTION ( 'NONE',  ( 0.000000000000000000, 0.000000000000000000, 1.000000000000000000 ) ) ;
#145 = DIRECTION ( 'NONE',  ( -1.000000000000000000, 0.000000000000000000, 0.000000000000000000 ) ) ;
#146 = CARTESIAN_POINT ( 'NONE',  ( 0.000000000000000000, 0.000000000000000000, 10.00000000000000000 ) ) ;
#147 = CIRCLE ( 'NONE', #169, 12.50000000000000000 ) ;
#148 = CC_DESIGN_APPROVAL ( #51, ( #157 ) ) ;
#149 = DIRECTION ( 'NONE',  ( 1.224646799147353207E-16, 1.000000000000000000, -0.000000000000000000 ) ) ;
#150 = DATE_AND_TIME ( #198, #297 ) ;
#151 = PERSON_AND_ORGANIZATION ( #125, #233 ) ;
#152 = LOCAL_TIME ( 11, 18, 44.00000000000000000, #172 ) ;
#153 = APPROVAL_ROLE ( '' ) ;
#154 = ADVANCED_FACE ( 'NONE', ( #49 ), #240, .F. ) ;
#155 = ORIENTED_EDGE ( 'NONE', *, *, #197, .F. ) ;
#156 = VERTEX_POINT ( 'NONE', #96 ) ;
#157 = PRODUCT_DEFINITION ( 'NEZNÁMÝ', '', #16, #202 ) ;
#158 = ORIENTED_EDGE ( 'NONE', *, *, #234, .F. ) ;
#159 = CYLINDRICAL_SURFACE ( 'NONE', #123, 16.00000000000000000 ) ;
#160 = CARTESIAN_POINT ( 'NONE',  ( 16.00000000000000000, 1.959434878635765131E-15, 10.00000000000000000 ) ) ;
#161 = CARTESIAN_POINT ( 'NONE',  ( 0.000000000000000000, 0.000000000000000000, 10.00000000000000000 ) ) ;
#162 = CARTESIAN_POINT ( 'NONE',  ( 0.000000000000000000, 0.000000000000000000, 10.00000000000000000 ) ) ;
#163 = VECTOR ( 'NONE', #286, 1000.000000000000000 ) ;
#164 = FACE_OUTER_BOUND ( 'NONE', #293, .T. ) ;
#165 = EDGE_CURVE ( 'NONE', #253, #181, #215, .T. ) ;
#166 = CARTESIAN_POINT ( 'NONE',  ( 0.000000000000000000, 0.000000000000000000, 10.00000000000000000 ) ) ;
#167 = DIRECTION ( 'NONE',  ( 1.000000000000000000, 0.000000000000000000, -0.000000000000000000 ) ) ;
#168 = CARTESIAN_POINT ( 'NONE',  ( -16.00000000000000000, 0.000000000000000000, 10.00000000000000000 ) ) ;
#169 = AXIS2_PLACEMENT_3D ( 'NONE', #141, #93, #73 ) ;
#170 = VECTOR ( 'NONE', #2, 1000.000000000000000 ) ;
#171 = ADVANCED_FACE ( 'NONE', ( #24 ), #282, .F. ) ;
#172 = COORDINATED_UNIVERSAL_TIME_OFFSET ( 1, 0, .AHEAD. ) ;
#173 = ORIENTED_EDGE ( 'NONE', *, *, #270, .F. ) ;
#174 = PERSON_AND_ORGANIZATION_ROLE ( 'design_owner' ) ;
#175 = AXIS2_PLACEMENT_3D ( 'NONE', #46, #137, #235 ) ;
#176 = AXIS2_PLACEMENT_3D ( 'NONE', #127, #109, #62 ) ;
#177 = EDGE_CURVE ( 'NONE', #203, #295, #274, .T. ) ;
#178 = PERSON_AND_ORGANIZATION ( #125, #233 ) ;
#179 = ORIENTED_EDGE ( 'NONE', *, *, #35, .T. ) ;
#180 = PERSON_AND_ORGANIZATION ( #125, #233 ) ;
#181 = VERTEX_POINT ( 'NONE', #74 ) ;
#182 = ORIENTED_EDGE ( 'NONE', *, *, #177, .F. ) ;
#183 = AXIS2_PLACEMENT_3D ( 'NONE', #307, #23, #218 ) ;
#184 = DIRECTION ( 'NONE',  ( -0.000000000000000000, -0.000000000000000000, -1.000000000000000000 ) ) ;
#185 = ORIENTED_EDGE ( 'NONE', *, *, #25, .T. ) ;
#186 = EDGE_CURVE ( 'NONE', #65, #298, #268, .T. ) ;
#187 = CARTESIAN_POINT ( 'NONE',  ( 16.00000000000000000, 1.959434878635765131E-15, 10.00000000000000000 ) ) ;
#188 = AXIS2_PLACEMENT_3D ( 'NONE', #216, #195, #97 ) ;
#189 = LOCAL_TIME ( 11, 18, 44.00000000000000000, #87 ) ;
#190 = ORIENTED_EDGE ( 'NONE', *, *, #35, .F. ) ;
#191 = DIRECTION ( 'NONE',  ( -1.000000000000000000, 1.224646799147353207E-16, 0.000000000000000000 ) ) ;
#192 = DIRECTION ( 'NONE',  ( 1.000000000000000000, 0.000000000000000000, 0.000000000000000000 ) ) ;
#193 = DIRECTION ( 'NONE',  ( 1.000000000000000000, 0.000000000000000000, 0.000000000000000000 ) ) ;
#194 = CC_DESIGN_PERSON_AND_ORGANIZATION_ASSIGNMENT ( #180, #57, ( #16 ) ) ;
#195 = DIRECTION ( 'NONE',  ( 0.000000000000000000, 0.000000000000000000, 1.000000000000000000 ) ) ;
#196 = DIRECTION ( 'NONE',  ( 0.000000000000000000, 0.000000000000000000, 1.000000000000000000 ) ) ;
#197 = EDGE_CURVE ( 'NONE', #156, #181, #241, .T. ) ;
#198 = CALENDAR_DATE ( 2022, 20, 6 ) ;
#199 = ORIENTED_EDGE ( 'NONE', *, *, #115, .T. ) ;
#200 = APPROVAL_PERSON_ORGANIZATION ( #178, #51, #153 ) ;
#201 = PERSON_AND_ORGANIZATION_ROLE ( 'design_supplier' ) ;
#202 = DESIGN_CONTEXT ( 'detailed design', #245, 'design' ) ;
#203 = VERTEX_POINT ( 'NONE', #52 ) ;
#204 = MECHANICAL_CONTEXT ( 'NONE', #255, 'mechanical' ) ;
#205 = ORIENTED_EDGE ( 'NONE', *, *, #55, .T. ) ;
#206 = AXIS2_PLACEMENT_3D ( 'NONE', #267, #53, #145 ) ;
#207 = APPROVAL_STATUS ( 'not_yet_approved' ) ;
#208 = EDGE_CURVE ( 'NONE', #156, #132, #291, .T. ) ;
#209 = ORIENTED_EDGE ( 'NONE', *, *, #165, .F. ) ;
#210 = ORIENTED_EDGE ( 'NONE', *, *, #165, .T. ) ;
#211 = AXIS2_PLACEMENT_3D ( 'NONE', #98, #196, #7 ) ;
#212 = DIRECTION ( 'NONE',  ( 0.000000000000000000, 0.000000000000000000, 1.000000000000000000 ) ) ;
#213 = CARTESIAN_POINT ( 'NONE',  ( 12.70000000000000107, 0.000000000000000000, 10.19999999999998685 ) ) ;
#214 = ORIENTED_EDGE ( 'NONE', *, *, #3, .T. ) ;
#215 = CIRCLE ( 'NONE', #9, 12.70000000000000107 ) ;
#216 = CARTESIAN_POINT ( 'NONE',  ( 0.000000000000000000, 0.000000000000000000, 0.000000000000000000 ) ) ;
#217 = CC_DESIGN_PERSON_AND_ORGANIZATION_ASSIGNMENT ( #273, #174, ( #272 ) ) ;
#218 = DIRECTION ( 'NONE',  ( 1.000000000000000000, 0.000000000000000000, 0.000000000000000000 ) ) ;
#219 = CARTESIAN_POINT ( 'NONE',  ( -12.50000000000000000, 0.000000000000000000, 210.0000000000000284 ) ) ;
#220 = AXIS2_PLACEMENT_3D ( 'NONE', #27, #126, #118 ) ;
#221 = FACE_BOUND ( 'NONE', #114, .T. ) ;
#222 = EDGE_CURVE ( 'NONE', #295, #156, #99, .T. ) ;
#223 = DIRECTION ( 'NONE',  ( 1.000000000000000000, 0.000000000000000000, 0.000000000000000000 ) ) ;
#224 = SHAPE_DEFINITION_REPRESENTATION ( #13, #56 ) ;
#225 = ORIENTED_EDGE ( 'NONE', *, *, #304, .T. ) ;
#226 = COORDINATED_UNIVERSAL_TIME_OFFSET ( 1, 0, .AHEAD. ) ;
#227 = DATE_AND_TIME ( #34, #94 ) ;
#228 = CALENDAR_DATE ( 2022, 20, 6 ) ;
#229 = UNCERTAINTY_MEASURE_WITH_UNIT (LENGTH_MEASURE( 1.000000000000000082E-05 ), #252, 'distance_accuracy_value', 'NONE');
#230 = CC_DESIGN_PERSON_AND_ORGANIZATION_ASSIGNMENT ( #151, #134, ( #157 ) ) ;
#231 = EDGE_LOOP ( 'NONE', ( #112, #190, #225, #86 ) ) ;
#232 = VECTOR ( 'NONE', #184, 1000.000000000000000 ) ;
#233 = ORGANIZATION ( 'NEURÈENÝ', 'NEURÈENÝ', '' ) ;
#234 = EDGE_CURVE ( 'NONE', #181, #253, #32, .T. ) ;
#235 = DIRECTION ( 'NONE',  ( -1.000000000000000000, 0.000000000000000000, 0.000000000000000000 ) ) ;
#236 = EDGE_LOOP ( 'NONE', ( #299, #130 ) ) ;
#237 = CARTESIAN_POINT ( 'NONE',  ( -16.00000000000000000, 0.000000000000000000, 0.000000000000000000 ) ) ;
#238 = ADVANCED_FACE ( 'NONE', ( #78 ), #242, .T. ) ;
#239 = APPROVAL ( #207, 'NEURÈENÝ' ) ;
#240 = PLANE ( 'NONE',  #188 ) ;
#241 = CIRCLE ( 'NONE', #247, 0.2000000000000005107 ) ;
#242 = PLANE ( 'NONE',  #211 ) ;
#243 = FACE_OUTER_BOUND ( 'NONE', #91, .T. ) ;
#244 = FACE_OUTER_BOUND ( 'NONE', #11, .T. ) ;
#245 = APPLICATION_CONTEXT ( 'configuration controlled 3d designs of mechanical parts and assemblies' ) ;
#246 = CC_DESIGN_PERSON_AND_ORGANIZATION_ASSIGNMENT ( #276, #201, ( #16 ) ) ;
#247 = AXIS2_PLACEMENT_3D ( 'NONE', #77, #149, #191 ) ;
#248 = DIRECTION ( 'NONE',  ( 0.000000000000000000, 0.000000000000000000, 1.000000000000000000 ) ) ;
#249 =( NAMED_UNIT ( * ) PLANE_ANGLE_UNIT ( ) SI_UNIT ( $, .RADIAN. ) );
#250 = APPROVAL_DATE_TIME ( #150, #26 ) ;
#251 = PERSON_AND_ORGANIZATION ( #125, #233 ) ;
#252 =( LENGTH_UNIT ( ) NAMED_UNIT ( * ) SI_UNIT ( .MILLI., .METRE. ) );
#253 = VERTEX_POINT ( 'NONE', #265 ) ;
#254 = FACE_OUTER_BOUND ( 'NONE', #231, .T. ) ;
#255 = APPLICATION_CONTEXT ( 'configuration controlled 3d designs of mechanical parts and assemblies' ) ;
#256 = FACE_OUTER_BOUND ( 'NONE', #90, .T. ) ;
#257 = LINE ( 'NONE', #71, #113 ) ;
#258 = AXIS2_PLACEMENT_3D ( 'NONE', #140, #117, #21 ) ;
#259 = SECURITY_CLASSIFICATION ( '', '', #129 ) ;
#260 = DIRECTION ( 'NONE',  ( 0.000000000000000000, 0.000000000000000000, 1.000000000000000000 ) ) ;
#261 = DIRECTION ( 'NONE',  ( 1.000000000000000000, 0.000000000000000000, 0.000000000000000000 ) ) ;
#262 = DIRECTION ( 'NONE',  ( 0.000000000000000000, 0.000000000000000000, 1.000000000000000000 ) ) ;
#263 = AXIS2_PLACEMENT_3D ( 'NONE', #120, #6, #223 ) ;
#264 = PLANE ( 'NONE',  #76 ) ;
#265 = CARTESIAN_POINT ( 'NONE',  ( 12.70000000000000107, 0.000000000000000000, 9.999999999999992895 ) ) ;
#266 = ADVANCED_FACE ( 'NONE', ( #221, #164 ), #264, .T. ) ;
#267 = CARTESIAN_POINT ( 'NONE',  ( 0.000000000000000000, 0.000000000000000000, 10.00000000000000000 ) ) ;
#268 = CIRCLE ( 'NONE', #67, 16.00000000000000000 ) ;
#269 = APPROVAL_ROLE ( '' ) ;
#270 = EDGE_CURVE ( 'NONE', #111, #38, #20, .T. ) ;
#271 = COORDINATED_UNIVERSAL_TIME_OFFSET ( 1, 0, .AHEAD. ) ;
#272 = PRODUCT ( 'fee4', 'fee4', '', ( #204 ) ) ;
#273 = PERSON_AND_ORGANIZATION ( #125, #233 ) ;
#274 = CIRCLE ( 'NONE', #220, 12.50000000000000000 ) ;
#275 = APPROVAL_STATUS ( 'not_yet_approved' ) ;
#276 = PERSON_AND_ORGANIZATION ( #125, #233 ) ;
#277 = CARTESIAN_POINT ( 'NONE',  ( 16.00000000000000000, 1.959434878635765131E-15, 0.000000000000000000 ) ) ;
#278 = CARTESIAN_POINT ( 'NONE',  ( 0.000000000000000000, 0.000000000000000000, 0.000000000000000000 ) ) ;
#279 = DIRECTION ( 'NONE',  ( 1.000000000000000000, 0.000000000000000000, 0.000000000000000000 ) ) ;
#280 = CARTESIAN_POINT ( 'NONE',  ( 12.50000000000000000, 1.530808498934191521E-15, 10.19999999999998685 ) ) ;
#281 = CIRCLE ( 'NONE', #39, 0.2000000000000005107 ) ;
#282 = TOROIDAL_SURFACE ( 'NONE', #183, 12.70000000000000107, 0.2000000000000000111 ) ;
#283 = DIRECTION ( 'NONE',  ( -0.000000000000000000, -0.000000000000000000, -1.000000000000000000 ) ) ;
#284 = ADVANCED_FACE ( 'NONE', ( #243 ), #143, .T. ) ;
#285 = CARTESIAN_POINT ( 'NONE',  ( -12.50000000000000000, 0.000000000000000000, 210.0000000000000284 ) ) ;
#286 = DIRECTION ( 'NONE',  ( -0.000000000000000000, -0.000000000000000000, -1.000000000000000000 ) ) ;
#287 = DIRECTION ( 'NONE',  ( 1.000000000000000000, 0.000000000000000000, 0.000000000000000000 ) ) ;
#288 = ADVANCED_FACE ( 'NONE', ( #244 ), #72, .F. ) ;
#289 = DIRECTION ( 'NONE',  ( -0.000000000000000000, -0.000000000000000000, -1.000000000000000000 ) ) ;
#290 = DIRECTION ( 'NONE',  ( 1.000000000000000000, 0.000000000000000000, 0.000000000000000000 ) ) ;
#291 = CIRCLE ( 'NONE', #263, 12.50000000000000000 ) ;
#292 = ORIENTED_EDGE ( 'NONE', *, *, #304, .F. ) ;
#293 = EDGE_LOOP ( 'NONE', ( #179, #61 ) ) ;
#294 = COORDINATED_UNIVERSAL_TIME_OFFSET ( 1, 0, .AHEAD. ) ;
#295 = VERTEX_POINT ( 'NONE', #219 ) ;
#296 = CALENDAR_DATE ( 2022, 20, 6 ) ;
#297 = LOCAL_TIME ( 11, 18, 44.00000000000000000, #294 ) ;
#298 = VERTEX_POINT ( 'NONE', #122 ) ;
#299 = ORIENTED_EDGE ( 'NONE', *, *, #66, .T. ) ;
#300 = AXIS2_PLACEMENT_3D ( 'NONE', #161, #212, #261 ) ;
#301 = ORIENTED_EDGE ( 'NONE', *, *, #208, .T. ) ;
#302 = DIRECTION ( 'NONE',  ( 1.000000000000000000, 0.000000000000000000, 0.000000000000000000 ) ) ;
#303 = DIRECTION ( 'NONE',  ( 0.000000000000000000, 0.000000000000000000, -1.000000000000000000 ) ) ;
#304 = EDGE_CURVE ( 'NONE', #298, #111, #79, .T. ) ;
#305 = DIRECTION ( 'NONE',  ( 0.000000000000000000, -1.000000000000000000, 0.000000000000000000 ) ) ;
#306 = CC_DESIGN_APPROVAL ( #26, ( #259 ) ) ;
#307 = CARTESIAN_POINT ( 'NONE',  ( 0.000000000000000000, 0.000000000000000000, 10.19999999999998685 ) ) ;
ENDSEC;
END-ISO-10303-21;
