ISO-10303-21;
HEADER;
FILE_DESCRIPTION (( 'STEP AP203' ),
    '1' );
FILE_NAME ('277c.STEP',
    '2022-06-20T10:27:39',
    ( '' ),
    ( '' ),
    'SwSTEP 2.0',
    'SolidWorks 2019',
    '' );
FILE_SCHEMA (( 'CONFIG_CONTROL_DESIGN' ));
ENDSEC;

DATA;
#1 = DIRECTION ( 'NONE',  ( 0.000000000000000000, 0.000000000000000000, 1.000000000000000000 ) ) ;
#2 = CARTESIAN_POINT ( 'NONE',  ( 0.000000000000000000, 0.000000000000000000, 101.2000000000000171 ) ) ;
#3 = CARTESIAN_POINT ( 'NONE',  ( 0.000000000000000000, 0.000000000000000000, 101.2000000000000171 ) ) ;
#4 = ORIENTED_EDGE ( 'NONE', *, *, #246, .T. ) ;
#5 = ADVANCED_FACE ( 'NONE', ( #162 ), #207, .T. ) ;
#6 = FACE_OUTER_BOUND ( 'NONE', #152, .T. ) ;
#7 = CC_DESIGN_APPROVAL ( #173, ( #191 ) ) ;
#8 = DIRECTION ( 'NONE',  ( 1.000000000000000000, 0.000000000000000000, 0.000000000000000000 ) ) ;
#9 = VECTOR ( 'NONE', #307, 1000.000000000000000 ) ;
#10 = DIRECTION ( 'NONE',  ( 0.000000000000000000, 0.000000000000000000, 1.000000000000000000 ) ) ;
#11 = CARTESIAN_POINT ( 'NONE',  ( -0.5000000000000000000, 0.000000000000000000, 101.2000000000000171 ) ) ;
#12 = EDGE_CURVE ( 'NONE', #112, #45, #171, .T. ) ;
#13 = CARTESIAN_POINT ( 'NONE',  ( -1.250000000000000000, 0.000000000000000000, 1.199999999999999956 ) ) ;
#14 = AXIS2_PLACEMENT_3D ( 'NONE', #177, #229, #249 ) ;
#15 = PERSON_AND_ORGANIZATION_ROLE ( 'design_owner' ) ;
#16 =( LENGTH_UNIT ( ) NAMED_UNIT ( * ) SI_UNIT ( .MILLI., .METRE. ) );
#17 = PRODUCT_DEFINITION ( 'NEZNÁMÝ', '', #191, #92 ) ;
#18 = VERTEX_POINT ( 'NONE', #209 ) ;
#19 = PERSON_AND_ORGANIZATION ( #158, #206 ) ;
#20 = ORIENTED_EDGE ( 'NONE', *, *, #193, .F. ) ;
#21 = CARTESIAN_POINT ( 'NONE',  ( 0.000000000000000000, 0.000000000000000000, 1.399999999999998579 ) ) ;
#22 = ORIENTED_EDGE ( 'NONE', *, *, #133, .F. ) ;
#23 = DATE_AND_TIME ( #140, #300 ) ;
#24 = ORIENTED_EDGE ( 'NONE', *, *, #61, .F. ) ;
#25 = APPROVAL_PERSON_ORGANIZATION ( #205, #147, #305 ) ;
#26 = PERSON_AND_ORGANIZATION ( #158, #206 ) ;
#27 = VERTEX_POINT ( 'NONE', #283 ) ;
#28 = CALENDAR_DATE ( 2022, 20, 6 ) ;
#29 = CARTESIAN_POINT ( 'NONE',  ( 0.000000000000000000, 0.000000000000000000, 101.2000000000000171 ) ) ;
#30 = TOROIDAL_SURFACE ( 'NONE', #155, 0.6999999999999999556, 0.2000000000000000111 ) ;
#31 = DATE_TIME_ROLE ( 'creation_date' ) ;
#32 = EDGE_CURVE ( 'NONE', #87, #27, #257, .T. ) ;
#33 = CARTESIAN_POINT ( 'NONE',  ( 0.000000000000000000, 0.000000000000000000, 0.000000000000000000 ) ) ;
#34 = CIRCLE ( 'NONE', #66, 0.5000000000000000000 ) ;
#35 = DIRECTION ( 'NONE',  ( 0.000000000000000000, 0.000000000000000000, 1.000000000000000000 ) ) ;
#36 = ORIENTED_EDGE ( 'NONE', *, *, #246, .F. ) ;
#37 = CARTESIAN_POINT ( 'NONE',  ( -0.5000000000000000000, 0.000000000000000000, 1.399999999999998579 ) ) ;
#38 = CARTESIAN_POINT ( 'NONE',  ( 0.000000000000000000, 0.000000000000000000, 0.000000000000000000 ) ) ;
#39 = TOROIDAL_SURFACE ( 'NONE', #270, 0.6999999999999999556, 0.2000000000000000111 ) ;
#40 = EDGE_CURVE ( 'NONE', #87, #102, #303, .T. ) ;
#41 = AXIS2_PLACEMENT_3D ( 'NONE', #33, #35, #148 ) ;
#42 = CARTESIAN_POINT ( 'NONE',  ( 0.000000000000000000, 0.000000000000000000, 1.399999999999998579 ) ) ;
#43 = APPROVAL_DATE_TIME ( #65, #147 ) ;
#44 = ORIENTED_EDGE ( 'NONE', *, *, #238, .F. ) ;
#45 = VERTEX_POINT ( 'NONE', #165 ) ;
#46 = PERSON_AND_ORGANIZATION ( #158, #206 ) ;
#47 = AXIS2_PLACEMENT_3D ( 'NONE', #42, #1, #64 ) ;
#48 = ORIENTED_EDGE ( 'NONE', *, *, #117, .F. ) ;
#49 = DIRECTION ( 'NONE',  ( 0.000000000000000000, -1.000000000000000000, 0.000000000000000000 ) ) ;
#50 = CC_DESIGN_APPROVAL ( #212, ( #224 ) ) ;
#51 = APPROVAL_ROLE ( '' ) ;
#52 = CARTESIAN_POINT ( 'NONE',  ( 0.000000000000000000, 0.000000000000000000, 1.399999999999998579 ) ) ;
#53 = DIRECTION ( 'NONE',  ( 1.000000000000000000, 0.000000000000000000, 0.000000000000000000 ) ) ;
#54 =( GEOMETRIC_REPRESENTATION_CONTEXT ( 3 ) GLOBAL_UNCERTAINTY_ASSIGNED_CONTEXT ( ( #291 ) ) GLOBAL_UNIT_ASSIGNED_CONTEXT ( ( #16, #181, #231 ) ) REPRESENTATION_CONTEXT ( 'NONE', 'WORKASPACE' ) );
#55 = CLOSED_SHELL ( 'NONE', ( #267, #82, #5, #153, #126, #93, #178, #107, #120 ) ) ;
#56 = EDGE_CURVE ( 'NONE', #18, #109, #34, .T. ) ;
#57 = FACE_OUTER_BOUND ( 'NONE', #269, .T. ) ;
#58 = AXIS2_PLACEMENT_3D ( 'NONE', #245, #304, #302 ) ;
#59 = DIRECTION ( 'NONE',  ( 1.000000000000000000, 0.000000000000000000, 0.000000000000000000 ) ) ;
#60 = ORIENTED_EDGE ( 'NONE', *, *, #198, .T. ) ;
#61 = EDGE_CURVE ( 'NONE', #18, #87, #129, .T. ) ;
#62 = LOCAL_TIME ( 12, 27, 39.00000000000000000, #208 ) ;
#63 = APPROVAL_STATUS ( 'not_yet_approved' ) ;
#64 = DIRECTION ( 'NONE',  ( 1.000000000000000000, 0.000000000000000000, 0.000000000000000000 ) ) ;
#65 = DATE_AND_TIME ( #151, #169 ) ;
#66 = AXIS2_PLACEMENT_3D ( 'NONE', #2, #71, #281 ) ;
#67 = EDGE_LOOP ( 'NONE', ( #88, #266 ) ) ;
#68 = CALENDAR_DATE ( 2022, 20, 6 ) ;
#69 = ORIENTED_EDGE ( 'NONE', *, *, #294, .F. ) ;
#70 = ORIENTED_EDGE ( 'NONE', *, *, #279, .F. ) ;
#71 = DIRECTION ( 'NONE',  ( 0.000000000000000000, 0.000000000000000000, 1.000000000000000000 ) ) ;
#72 = DATE_AND_TIME ( #288, #247 ) ;
#73 = FACE_OUTER_BOUND ( 'NONE', #227, .T. ) ;
#74 = VECTOR ( 'NONE', #105, 1000.000000000000000 ) ;
#75 = APPROVAL_ROLE ( '' ) ;
#76 = CC_DESIGN_DATE_AND_TIME_ASSIGNMENT ( #23, #235, ( #224 ) ) ;
#77 = APPROVAL_PERSON_ORGANIZATION ( #216, #173, #75 ) ;
#78 = DIRECTION ( 'NONE',  ( 0.000000000000000000, 0.000000000000000000, 1.000000000000000000 ) ) ;
#79 = ORIENTED_EDGE ( 'NONE', *, *, #258, .T. ) ;
#80 = DIRECTION ( 'NONE',  ( 1.000000000000000000, 0.000000000000000000, -0.000000000000000000 ) ) ;
#81 = ORIENTED_EDGE ( 'NONE', *, *, #279, .T. ) ;
#82 = ADVANCED_FACE ( 'NONE', ( #214 ), #182, .T. ) ;
#83 = PLANE ( 'NONE',  #174 ) ;
#84 = CIRCLE ( 'NONE', #145, 1.250000000000000000 ) ;
#85 = ORIENTED_EDGE ( 'NONE', *, *, #12, .T. ) ;
#86 = CC_DESIGN_PERSON_AND_ORGANIZATION_ASSIGNMENT ( #150, #15, ( #163 ) ) ;
#87 = VERTEX_POINT ( 'NONE', #255 ) ;
#88 = ORIENTED_EDGE ( 'NONE', *, *, #188, .T. ) ;
#89 = ORIENTED_EDGE ( 'NONE', *, *, #258, .F. ) ;
#90 = COORDINATED_UNIVERSAL_TIME_OFFSET ( 1, 0, .AHEAD. ) ;
#91 = ORIENTED_EDGE ( 'NONE', *, *, #40, .T. ) ;
#92 = DESIGN_CONTEXT ( 'detailed design', #222, 'design' ) ;
#93 = ADVANCED_FACE ( 'NONE', ( #284 ), #241, .F. ) ;
#94 = AXIS2_PLACEMENT_3D ( 'NONE', #237, #211, #111 ) ;
#95 = DIRECTION ( 'NONE',  ( -0.000000000000000000, -0.000000000000000000, -1.000000000000000000 ) ) ;
#96 = PERSON_AND_ORGANIZATION ( #158, #206 ) ;
#97 = DIRECTION ( 'NONE',  ( -0.000000000000000000, -0.000000000000000000, -1.000000000000000000 ) ) ;
#98 = APPROVAL_STATUS ( 'not_yet_approved' ) ;
#99 = FACE_OUTER_BOUND ( 'NONE', #137, .T. ) ;
#100 = AXIS2_PLACEMENT_3D ( 'NONE', #190, #268, #296 ) ;
#101 = CARTESIAN_POINT ( 'NONE',  ( 0.000000000000000000, 0.000000000000000000, 0.000000000000000000 ) ) ;
#102 = VERTEX_POINT ( 'NONE', #37 ) ;
#103 = CARTESIAN_POINT ( 'NONE',  ( 0.000000000000000000, 0.000000000000000000, 1.399999999999998579 ) ) ;
#104 = AXIS2_PLACEMENT_3D ( 'NONE', #101, #170, #139 ) ;
#105 = DIRECTION ( 'NONE',  ( -0.000000000000000000, -0.000000000000000000, -1.000000000000000000 ) ) ;
#106 = VERTEX_POINT ( 'NONE', #218 ) ;
#107 = ADVANCED_FACE ( 'NONE', ( #262 ), #289, .T. ) ;
#108 = PRODUCT_DEFINITION_SHAPE ( 'NONE', 'NONE',  #17 ) ;
#109 = VERTEX_POINT ( 'NONE', #123 ) ;
#110 = PERSON_AND_ORGANIZATION_ROLE ( 'creator' ) ;
#111 = DIRECTION ( 'NONE',  ( 1.000000000000000000, 0.000000000000000000, 0.000000000000000000 ) ) ;
#112 = VERTEX_POINT ( 'NONE', #240 ) ;
#113 = CARTESIAN_POINT ( 'NONE',  ( 0.5000000000000000000, 6.123233995736766036E-17, 101.2000000000000171 ) ) ;
#114 = SECURITY_CLASSIFICATION_LEVEL ( 'unclassified' ) ;
#115 = ORIENTED_EDGE ( 'NONE', *, *, #12, .F. ) ;
#116 = CARTESIAN_POINT ( 'NONE',  ( 0.000000000000000000, 0.000000000000000000, 1.199999999999999956 ) ) ;
#117 = EDGE_CURVE ( 'NONE', #45, #112, #251, .T. ) ;
#118 = DIRECTION ( 'NONE',  ( 0.000000000000000000, 0.000000000000000000, 1.000000000000000000 ) ) ;
#119 = AXIS2_PLACEMENT_3D ( 'NONE', #192, #292, #146 ) ;
#120 = ADVANCED_FACE ( 'NONE', ( #57 ), #30, .F. ) ;
#121 = LOCAL_TIME ( 12, 27, 39.00000000000000000, #239 ) ;
#122 = DIRECTION ( 'NONE',  ( 0.000000000000000000, 0.000000000000000000, 1.000000000000000000 ) ) ;
#123 = CARTESIAN_POINT ( 'NONE',  ( -0.5000000000000000000, 0.000000000000000000, 101.2000000000000171 ) ) ;
#124 = CARTESIAN_POINT ( 'NONE',  ( -0.6999999999999999556, 8.572527594031473190E-17, 1.199999999999999289 ) ) ;
#125 = EDGE_LOOP ( 'NONE', ( #234, #22 ) ) ;
#126 = ADVANCED_FACE ( 'NONE', ( #141, #6 ), #83, .T. ) ;
#127 = VECTOR ( 'NONE', #287, 1000.000000000000000 ) ;
#128 = DIRECTION ( 'NONE',  ( 0.000000000000000000, 0.000000000000000000, 1.000000000000000000 ) ) ;
#129 = LINE ( 'NONE', #113, #223 ) ;
#130 = DIRECTION ( 'NONE',  ( -1.000000000000000000, 0.000000000000000000, 0.000000000000000000 ) ) ;
#131 = DIRECTION ( 'NONE',  ( -1.000000000000000000, 1.224646799147352714E-16, 0.000000000000000000 ) ) ;
#132 = DIRECTION ( 'NONE',  ( -0.000000000000000000, -0.000000000000000000, -1.000000000000000000 ) ) ;
#133 = EDGE_CURVE ( 'NONE', #106, #233, #176, .T. ) ;
#134 = ORIENTED_EDGE ( 'NONE', *, *, #61, .T. ) ;
#135 = APPROVAL_STATUS ( 'not_yet_approved' ) ;
#136 = CIRCLE ( 'NONE', #58, 0.6999999999999999556 ) ;
#137 = EDGE_LOOP ( 'NONE', ( #36, #115, #232, #278 ) ) ;
#138 = PERSON_AND_ORGANIZATION_ROLE ( 'creator' ) ;
#139 = DIRECTION ( 'NONE',  ( 1.000000000000000000, 0.000000000000000000, 0.000000000000000000 ) ) ;
#140 = CALENDAR_DATE ( 2022, 20, 6 ) ;
#141 = FACE_BOUND ( 'NONE', #242, .T. ) ;
#142 = EDGE_CURVE ( 'NONE', #233, #106, #84, .T. ) ;
#143 = DIRECTION ( 'NONE',  ( 0.000000000000000000, 0.000000000000000000, 1.000000000000000000 ) ) ;
#144 = ORIENTED_EDGE ( 'NONE', *, *, #117, .T. ) ;
#145 = AXIS2_PLACEMENT_3D ( 'NONE', #38, #118, #8 ) ;
#146 = DIRECTION ( 'NONE',  ( 1.000000000000000000, 0.000000000000000000, 0.000000000000000000 ) ) ;
#147 = APPROVAL ( #63, 'NEURÈENÝ' ) ;
#148 = DIRECTION ( 'NONE',  ( 1.000000000000000000, 0.000000000000000000, -0.000000000000000000 ) ) ;
#149 = FACE_OUTER_BOUND ( 'NONE', #157, .T. ) ;
#150 = PERSON_AND_ORGANIZATION ( #158, #206 ) ;
#151 = CALENDAR_DATE ( 2022, 20, 6 ) ;
#152 = EDGE_LOOP ( 'NONE', ( #85, #144 ) ) ;
#153 = ADVANCED_FACE ( 'NONE', ( #99 ), #196, .T. ) ;
#154 = AXIS2_PLACEMENT_3D ( 'NONE', #225, #122, #53 ) ;
#155 = AXIS2_PLACEMENT_3D ( 'NONE', #52, #10, #272 ) ;
#156 = CARTESIAN_POINT ( 'NONE',  ( -0.6999999999999999556, 8.572527594031471957E-17, 1.399999999999998579 ) ) ;
#157 = EDGE_LOOP ( 'NONE', ( #160, #79, #70, #215 ) ) ;
#158 = PERSON ( 'NEURÈENÝ', 'NEURÈENÝ', 'NEURÈENÝ', ('NEURÈENÝ'), ('NEURÈENÝ'), ('NEURÈENÝ') ) ;
#159 = DIRECTION ( 'NONE',  ( 1.000000000000000000, 0.000000000000000000, 0.000000000000000000 ) ) ;
#160 = ORIENTED_EDGE ( 'NONE', *, *, #198, .F. ) ;
#161 = COORDINATED_UNIVERSAL_TIME_OFFSET ( 1, 0, .AHEAD. ) ;
#162 = FACE_OUTER_BOUND ( 'NONE', #230, .T. ) ;
#163 = PRODUCT ( '277c', '277c', '', ( #280 ) ) ;
#164 = APPLICATION_CONTEXT ( 'configuration controlled 3d designs of mechanical parts and assemblies' ) ;
#165 = CARTESIAN_POINT ( 'NONE',  ( 1.250000000000000000, 1.530808498934191571E-16, 1.199999999999999956 ) ) ;
#166 = LINE ( 'NONE', #254, #9 ) ;
#167 = DIRECTION ( 'NONE',  ( 1.000000000000000000, 0.000000000000000000, -0.000000000000000000 ) ) ;
#168 = DATE_AND_TIME ( #28, #121 ) ;
#169 = LOCAL_TIME ( 12, 27, 39.00000000000000000, #179 ) ;
#170 = DIRECTION ( 'NONE',  ( 0.000000000000000000, 0.000000000000000000, 1.000000000000000000 ) ) ;
#171 = CIRCLE ( 'NONE', #94, 1.250000000000000000 ) ;
#172 = CYLINDRICAL_SURFACE ( 'NONE', #100, 0.5000000000000000000 ) ;
#173 = APPROVAL ( #135, 'NEURÈENÝ' ) ;
#174 = AXIS2_PLACEMENT_3D ( 'NONE', #116, #143, #80 ) ;
#175 = VERTEX_POINT ( 'NONE', #124 ) ;
#176 = CIRCLE ( 'NONE', #104, 1.250000000000000000 ) ;
#177 = CARTESIAN_POINT ( 'NONE',  ( 0.000000000000000000, 0.000000000000000000, 1.199999999999999956 ) ) ;
#178 = ADVANCED_FACE ( 'NONE', ( #73 ), #172, .T. ) ;
#179 = COORDINATED_UNIVERSAL_TIME_OFFSET ( 1, 0, .AHEAD. ) ;
#180 = ORIENTED_EDGE ( 'NONE', *, *, #32, .T. ) ;
#181 =( NAMED_UNIT ( * ) PLANE_ANGLE_UNIT ( ) SI_UNIT ( $, .RADIAN. ) );
#182 = CYLINDRICAL_SURFACE ( 'NONE', #203, 0.5000000000000000000 ) ;
#183 = ORIENTED_EDGE ( 'NONE', *, *, #193, .T. ) ;
#184 = DIRECTION ( 'NONE',  ( -1.000000000000000000, 0.000000000000000000, 0.000000000000000000 ) ) ;
#185 = AXIS2_PLACEMENT_3D ( 'NONE', #253, #95, #130 ) ;
#186 = CARTESIAN_POINT ( 'NONE',  ( 0.6999999999999999556, 0.000000000000000000, 1.399999999999998579 ) ) ;
#187 = DATE_AND_TIME ( #68, #62 ) ;
#188 = EDGE_CURVE ( 'NONE', #109, #18, #194, .T. ) ;
#189 = CIRCLE ( 'NONE', #275, 0.1999999999999999833 ) ;
#190 = CARTESIAN_POINT ( 'NONE',  ( 0.000000000000000000, 0.000000000000000000, 101.2000000000000171 ) ) ;
#191 = PRODUCT_DEFINITION_FORMATION_WITH_SPECIFIED_SOURCE ( 'LIBOVOLNÝ', '', #163, .NOT_KNOWN. ) ;
#192 = CARTESIAN_POINT ( 'NONE',  ( 0.000000000000000000, 0.000000000000000000, 101.2000000000000171 ) ) ;
#193 = EDGE_CURVE ( 'NONE', #109, #102, #243, .T. ) ;
#194 = CIRCLE ( 'NONE', #119, 0.5000000000000000000 ) ;
#195 = APPROVAL_PERSON_ORGANIZATION ( #26, #212, #51 ) ;
#196 = CYLINDRICAL_SURFACE ( 'NONE', #204, 1.250000000000000000 ) ;
#197 = EDGE_LOOP ( 'NONE', ( #306, #134, #91, #20 ) ) ;
#198 = EDGE_CURVE ( 'NONE', #102, #87, #298, .T. ) ;
#199 = DIRECTION ( 'NONE',  ( 0.000000000000000000, 0.000000000000000000, 1.000000000000000000 ) ) ;
#200 = ORIENTED_EDGE ( 'NONE', *, *, #40, .F. ) ;
#201 = ORIENTED_EDGE ( 'NONE', *, *, #188, .F. ) ;
#202 = DIRECTION ( 'NONE',  ( 1.224646799147353207E-16, 1.000000000000000000, -0.000000000000000000 ) ) ;
#203 = AXIS2_PLACEMENT_3D ( 'NONE', #3, #259, #184 ) ;
#204 = AXIS2_PLACEMENT_3D ( 'NONE', #265, #97, #220 ) ;
#205 = PERSON_AND_ORGANIZATION ( #158, #206 ) ;
#206 = ORGANIZATION ( 'NEURÈENÝ', 'NEURÈENÝ', '' ) ;
#207 = CYLINDRICAL_SURFACE ( 'NONE', #185, 1.250000000000000000 ) ;
#208 = COORDINATED_UNIVERSAL_TIME_OFFSET ( 1, 0, .AHEAD. ) ;
#209 = CARTESIAN_POINT ( 'NONE',  ( 0.5000000000000000000, 6.123233995736766036E-17, 101.2000000000000171 ) ) ;
#210 = APPROVAL_DATE_TIME ( #168, #212 ) ;
#211 = DIRECTION ( 'NONE',  ( 0.000000000000000000, 0.000000000000000000, 1.000000000000000000 ) ) ;
#212 = APPROVAL ( #98, 'NEURÈENÝ' ) ;
#213 = APPROVAL_DATE_TIME ( #72, #173 ) ;
#214 = FACE_OUTER_BOUND ( 'NONE', #197, .T. ) ;
#215 = ORIENTED_EDGE ( 'NONE', *, *, #32, .F. ) ;
#216 = PERSON_AND_ORGANIZATION ( #158, #206 ) ;
#217 = AXIS2_PLACEMENT_3D ( 'NONE', #29, #78, #167 ) ;
#218 = CARTESIAN_POINT ( 'NONE',  ( 1.250000000000000000, 1.530808498934191571E-16, 0.000000000000000000 ) ) ;
#219 = ADVANCED_BREP_SHAPE_REPRESENTATION ( '277c', ( #228, #221 ), #54 ) ;
#220 = DIRECTION ( 'NONE',  ( -1.000000000000000000, 0.000000000000000000, 0.000000000000000000 ) ) ;
#221 = AXIS2_PLACEMENT_3D ( 'NONE', #252, #276, #159 ) ;
#222 = APPLICATION_CONTEXT ( 'configuration controlled 3d designs of mechanical parts and assemblies' ) ;
#223 = VECTOR ( 'NONE', #132, 1000.000000000000000 ) ;
#224 = SECURITY_CLASSIFICATION ( '', '', #114 ) ;
#225 = CARTESIAN_POINT ( 'NONE',  ( 0.000000000000000000, 0.000000000000000000, 1.199999999999999956 ) ) ;
#226 = LINE ( 'NONE', #13, #74 ) ;
#227 = EDGE_LOOP ( 'NONE', ( #24, #201, #183, #60 ) ) ;
#228 = MANIFOLD_SOLID_BREP ( 'Zaoblit1', #55 ) ;
#229 = DIRECTION ( 'NONE',  ( -0.000000000000000000, -0.000000000000000000, -1.000000000000000000 ) ) ;
#230 = EDGE_LOOP ( 'NONE', ( #48, #4, #295, #44 ) ) ;
#231 =( NAMED_UNIT ( * ) SI_UNIT ( $, .STERADIAN. ) SOLID_ANGLE_UNIT ( ) );
#232 = ORIENTED_EDGE ( 'NONE', *, *, #238, .T. ) ;
#233 = VERTEX_POINT ( 'NONE', #244 ) ;
#234 = ORIENTED_EDGE ( 'NONE', *, *, #142, .F. ) ;
#235 = DATE_TIME_ROLE ( 'classification_date' ) ;
#236 = CC_DESIGN_SECURITY_CLASSIFICATION ( #224, ( #191 ) ) ;
#237 = CARTESIAN_POINT ( 'NONE',  ( 0.000000000000000000, 0.000000000000000000, 1.199999999999999956 ) ) ;
#238 = EDGE_CURVE ( 'NONE', #112, #233, #226, .T. ) ;
#239 = COORDINATED_UNIVERSAL_TIME_OFFSET ( 1, 0, .AHEAD. ) ;
#240 = CARTESIAN_POINT ( 'NONE',  ( -1.250000000000000000, 0.000000000000000000, 1.199999999999999956 ) ) ;
#241 = PLANE ( 'NONE',  #41 ) ;
#242 = EDGE_LOOP ( 'NONE', ( #81, #256 ) ) ;
#243 = LINE ( 'NONE', #11, #127 ) ;
#244 = CARTESIAN_POINT ( 'NONE',  ( -1.250000000000000000, 0.000000000000000000, 0.000000000000000000 ) ) ;
#245 = CARTESIAN_POINT ( 'NONE',  ( 0.000000000000000000, 0.000000000000000000, 1.199999999999999956 ) ) ;
#246 = EDGE_CURVE ( 'NONE', #45, #106, #166, .T. ) ;
#247 = LOCAL_TIME ( 12, 27, 39.00000000000000000, #161 ) ;
#248 = APPLICATION_PROTOCOL_DEFINITION ( 'international standard', 'config_control_design', 1994, #222 ) ;
#249 = DIRECTION ( 'NONE',  ( 1.000000000000000000, 0.000000000000000000, 0.000000000000000000 ) ) ;
#250 = DIRECTION ( 'NONE',  ( 0.000000000000000000, 0.000000000000000000, -1.000000000000000000 ) ) ;
#251 = CIRCLE ( 'NONE', #154, 1.250000000000000000 ) ;
#252 = CARTESIAN_POINT ( 'NONE',  ( 0.000000000000000000, 0.000000000000000000, 0.000000000000000000 ) ) ;
#253 = CARTESIAN_POINT ( 'NONE',  ( 0.000000000000000000, 0.000000000000000000, 1.199999999999999956 ) ) ;
#254 = CARTESIAN_POINT ( 'NONE',  ( 1.250000000000000000, 1.530808498934191571E-16, 1.199999999999999956 ) ) ;
#255 = CARTESIAN_POINT ( 'NONE',  ( 0.5000000000000000000, 6.123233995736766036E-17, 1.399999999999998579 ) ) ;
#256 = ORIENTED_EDGE ( 'NONE', *, *, #294, .T. ) ;
#257 = CIRCLE ( 'NONE', #274, 0.2000000000000000944 ) ;
#258 = EDGE_CURVE ( 'NONE', #102, #175, #189, .T. ) ;
#259 = DIRECTION ( 'NONE',  ( -0.000000000000000000, -0.000000000000000000, -1.000000000000000000 ) ) ;
#260 = PERSON_AND_ORGANIZATION ( #158, #206 ) ;
#261 = PERSON_AND_ORGANIZATION_ROLE ( 'classification_officer' ) ;
#262 = FACE_OUTER_BOUND ( 'NONE', #67, .T. ) ;
#263 = CC_DESIGN_PERSON_AND_ORGANIZATION_ASSIGNMENT ( #46, #138, ( #191 ) ) ;
#264 = SHAPE_DEFINITION_REPRESENTATION ( #108, #219 ) ;
#265 = CARTESIAN_POINT ( 'NONE',  ( 0.000000000000000000, 0.000000000000000000, 1.199999999999999956 ) ) ;
#266 = ORIENTED_EDGE ( 'NONE', *, *, #56, .T. ) ;
#267 = ADVANCED_FACE ( 'NONE', ( #149 ), #39, .F. ) ;
#268 = DIRECTION ( 'NONE',  ( -0.000000000000000000, -0.000000000000000000, -1.000000000000000000 ) ) ;
#269 = EDGE_LOOP ( 'NONE', ( #89, #200, #180, #69 ) ) ;
#270 = AXIS2_PLACEMENT_3D ( 'NONE', #21, #128, #277 ) ;
#271 = CC_DESIGN_APPROVAL ( #147, ( #17 ) ) ;
#272 = DIRECTION ( 'NONE',  ( 1.000000000000000000, 0.000000000000000000, 0.000000000000000000 ) ) ;
#273 = APPLICATION_PROTOCOL_DEFINITION ( 'international standard', 'config_control_design', 1994, #164 ) ;
#274 = AXIS2_PLACEMENT_3D ( 'NONE', #186, #49, #250 ) ;
#275 = AXIS2_PLACEMENT_3D ( 'NONE', #156, #202, #131 ) ;
#276 = DIRECTION ( 'NONE',  ( 0.000000000000000000, 0.000000000000000000, 1.000000000000000000 ) ) ;
#277 = DIRECTION ( 'NONE',  ( 1.000000000000000000, 0.000000000000000000, 0.000000000000000000 ) ) ;
#278 = ORIENTED_EDGE ( 'NONE', *, *, #142, .T. ) ;
#279 = EDGE_CURVE ( 'NONE', #27, #175, #136, .T. ) ;
#280 = MECHANICAL_CONTEXT ( 'NONE', #164, 'mechanical' ) ;
#281 = DIRECTION ( 'NONE',  ( 1.000000000000000000, 0.000000000000000000, 0.000000000000000000 ) ) ;
#282 = AXIS2_PLACEMENT_3D ( 'NONE', #103, #199, #59 ) ;
#283 = CARTESIAN_POINT ( 'NONE',  ( 0.6999999999999999556, 0.000000000000000000, 1.199999999999999289 ) ) ;
#284 = FACE_OUTER_BOUND ( 'NONE', #125, .T. ) ;
#285 = PERSON_AND_ORGANIZATION_ROLE ( 'design_supplier' ) ;
#286 = PRODUCT_RELATED_PRODUCT_CATEGORY ( 'detail', '', ( #163 ) ) ;
#287 = DIRECTION ( 'NONE',  ( -0.000000000000000000, -0.000000000000000000, -1.000000000000000000 ) ) ;
#288 = CALENDAR_DATE ( 2022, 20, 6 ) ;
#289 = PLANE ( 'NONE',  #217 ) ;
#290 = CC_DESIGN_PERSON_AND_ORGANIZATION_ASSIGNMENT ( #19, #110, ( #17 ) ) ;
#291 = UNCERTAINTY_MEASURE_WITH_UNIT (LENGTH_MEASURE( 1.000000000000000082E-05 ), #16, 'distance_accuracy_value', 'NONE');
#292 = DIRECTION ( 'NONE',  ( 0.000000000000000000, 0.000000000000000000, 1.000000000000000000 ) ) ;
#293 = CC_DESIGN_PERSON_AND_ORGANIZATION_ASSIGNMENT ( #260, #261, ( #224 ) ) ;
#294 = EDGE_CURVE ( 'NONE', #175, #27, #297, .T. ) ;
#295 = ORIENTED_EDGE ( 'NONE', *, *, #133, .T. ) ;
#296 = DIRECTION ( 'NONE',  ( -1.000000000000000000, 0.000000000000000000, 0.000000000000000000 ) ) ;
#297 = CIRCLE ( 'NONE', #14, 0.6999999999999999556 ) ;
#298 = CIRCLE ( 'NONE', #282, 0.5000000000000000000 ) ;
#299 = CC_DESIGN_DATE_AND_TIME_ASSIGNMENT ( #187, #31, ( #17 ) ) ;
#300 = LOCAL_TIME ( 12, 27, 39.00000000000000000, #90 ) ;
#301 = CC_DESIGN_PERSON_AND_ORGANIZATION_ASSIGNMENT ( #96, #285, ( #191 ) ) ;
#302 = DIRECTION ( 'NONE',  ( 1.000000000000000000, 0.000000000000000000, 0.000000000000000000 ) ) ;
#303 = CIRCLE ( 'NONE', #47, 0.5000000000000000000 ) ;
#304 = DIRECTION ( 'NONE',  ( -0.000000000000000000, -0.000000000000000000, -1.000000000000000000 ) ) ;
#305 = APPROVAL_ROLE ( '' ) ;
#306 = ORIENTED_EDGE ( 'NONE', *, *, #56, .F. ) ;
#307 = DIRECTION ( 'NONE',  ( -0.000000000000000000, -0.000000000000000000, -1.000000000000000000 ) ) ;
ENDSEC;
END-ISO-10303-21;
