ISO-10303-21;
HEADER;
FILE_DESCRIPTION (( 'STEP AP203' ),
    '1' );
FILE_NAME ('39ad.STEP',
    '2022-06-20T09:56:26',
    ( '' ),
    ( '' ),
    'SwSTEP 2.0',
    'SolidWorks 2019',
    '' );
FILE_SCHEMA (( 'CONFIG_CONTROL_DESIGN' ));
ENDSEC;

DATA;
#1 = LOCAL_TIME ( 11, 56, 26.00000000000000000, #277 ) ;
#2 = ORIENTED_EDGE ( 'NONE', *, *, #6, .F. ) ;
#3 = COORDINATED_UNIVERSAL_TIME_OFFSET ( 1, 0, .AHEAD. ) ;
#4 = PRODUCT ( '39ad', '39ad', '', ( #306 ) ) ;
#5 = ORIENTED_EDGE ( 'NONE', *, *, #231, .T. ) ;
#6 = EDGE_CURVE ( 'NONE', #285, #76, #291, .T. ) ;
#7 = CALENDAR_DATE ( 2022, 20, 6 ) ;
#8 = VERTEX_POINT ( 'NONE', #30 ) ;
#9 = AXIS2_PLACEMENT_3D ( 'NONE', #274, #105, #151 ) ;
#10 = ORIENTED_EDGE ( 'NONE', *, *, #224, .T. ) ;
#11 = EDGE_LOOP ( 'NONE', ( #75, #5, #144, #95 ) ) ;
#12 = DIRECTION ( 'NONE',  ( 0.000000000000000000, -1.000000000000000000, 0.000000000000000000 ) ) ;
#13 = CIRCLE ( 'NONE', #64, 3.299999999999999822 ) ;
#14 = DIRECTION ( 'NONE',  ( 1.000000000000000000, 0.000000000000000000, 0.000000000000000000 ) ) ;
#15 = MANIFOLD_SOLID_BREP ( 'Zaoblit1', #242 ) ;
#16 = FACE_OUTER_BOUND ( 'NONE', #11, .T. ) ;
#17 = DIRECTION ( 'NONE',  ( 0.000000000000000000, 0.000000000000000000, 1.000000000000000000 ) ) ;
#18 = APPROVAL_PERSON_ORGANIZATION ( #233, #63, #123 ) ;
#19 = FACE_OUTER_BOUND ( 'NONE', #169, .T. ) ;
#20 = DIRECTION ( 'NONE',  ( 1.000000000000000000, 0.000000000000000000, 0.000000000000000000 ) ) ;
#21 = PRODUCT_RELATED_PRODUCT_CATEGORY ( 'detail', '', ( #4 ) ) ;
#22 = CIRCLE ( 'NONE', #193, 3.299999999999999822 ) ;
#23 = DATE_AND_TIME ( #229, #1 ) ;
#24 = DIRECTION ( 'NONE',  ( 0.000000000000000000, 0.000000000000000000, 1.000000000000000000 ) ) ;
#25 = ORIENTED_EDGE ( 'NONE', *, *, #231, .F. ) ;
#26 = CC_DESIGN_PERSON_AND_ORGANIZATION_ASSIGNMENT ( #121, #94, ( #149 ) ) ;
#27 = CARTESIAN_POINT ( 'NONE',  ( 0.000000000000000000, 0.000000000000000000, 255.0000000000000000 ) ) ;
#28 = DATE_AND_TIME ( #71, #159 ) ;
#29 = ORIENTED_EDGE ( 'NONE', *, *, #241, .F. ) ;
#30 = CARTESIAN_POINT ( 'NONE',  ( -3.100000000000000089, 0.000000000000000000, 255.0000000000000000 ) ) ;
#31 = DIRECTION ( 'NONE',  ( -0.000000000000000000, -0.000000000000000000, -1.000000000000000000 ) ) ;
#32 = AXIS2_PLACEMENT_3D ( 'NONE', #38, #17, #175 ) ;
#33 = ORIENTED_EDGE ( 'NONE', *, *, #109, .F. ) ;
#34 = APPROVAL ( #255, 'NEURÈENÝ' ) ;
#35 = DIRECTION ( 'NONE',  ( 0.000000000000000000, 0.000000000000000000, 1.000000000000000000 ) ) ;
#36 = DIRECTION ( 'NONE',  ( 1.000000000000000000, 0.000000000000000000, 0.000000000000000000 ) ) ;
#37 = EDGE_CURVE ( 'NONE', #268, #217, #13, .T. ) ;
#38 = CARTESIAN_POINT ( 'NONE',  ( 0.000000000000000000, 0.000000000000000000, 0.000000000000000000 ) ) ;
#39 = FACE_OUTER_BOUND ( 'NONE', #195, .T. ) ;
#40 = CC_DESIGN_APPROVAL ( #63, ( #149 ) ) ;
#41 = DIRECTION ( 'NONE',  ( 1.000000000000000000, 0.000000000000000000, 0.000000000000000000 ) ) ;
#42 = APPROVAL_ROLE ( '' ) ;
#43 = VECTOR ( 'NONE', #107, 1000.000000000000000 ) ;
#44 = UNCERTAINTY_MEASURE_WITH_UNIT (LENGTH_MEASURE( 1.000000000000000082E-05 ), #88, 'distance_accuracy_value', 'NONE');
#45 = CARTESIAN_POINT ( 'NONE',  ( 3.299999999999999822, 0.000000000000000000, 5.000000000000005329 ) ) ;
#46 = ORIENTED_EDGE ( 'NONE', *, *, #267, .T. ) ;
#47 = DATE_AND_TIME ( #142, #172 ) ;
#48 = ORIENTED_EDGE ( 'NONE', *, *, #190, .T. ) ;
#49 = ORIENTED_EDGE ( 'NONE', *, *, #164, .T. ) ;
#50 = SECURITY_CLASSIFICATION_LEVEL ( 'unclassified' ) ;
#51 = EDGE_LOOP ( 'NONE', ( #281, #170 ) ) ;
#52 = VECTOR ( 'NONE', #72, 1000.000000000000000 ) ;
#53 = EDGE_LOOP ( 'NONE', ( #2, #219, #128, #97 ) ) ;
#54 = ADVANCED_FACE ( 'NONE', ( #266 ), #147, .T. ) ;
#55 = FACE_OUTER_BOUND ( 'NONE', #237, .T. ) ;
#56 = CARTESIAN_POINT ( 'NONE',  ( -3.299999999999999822, 4.041334437186265510E-16, 5.000000000000005329 ) ) ;
#57 = LINE ( 'NONE', #249, #168 ) ;
#58 = VECTOR ( 'NONE', #101, 1000.000000000000000 ) ;
#59 = CC_DESIGN_DATE_AND_TIME_ASSIGNMENT ( #28, #188, ( #293 ) ) ;
#60 = FACE_OUTER_BOUND ( 'NONE', #53, .T. ) ;
#61 = CARTESIAN_POINT ( 'NONE',  ( 3.100000000000000089, 3.796405077356794918E-16, 5.200000000000009948 ) ) ;
#62 = DESIGN_CONTEXT ( 'detailed design', #207, 'design' ) ;
#63 = APPROVAL ( #288, 'NEURÈENÝ' ) ;
#64 = AXIS2_PLACEMENT_3D ( 'NONE', #99, #127, #102 ) ;
#65 = COORDINATED_UNIVERSAL_TIME_OFFSET ( 1, 0, .AHEAD. ) ;
#66 = CC_DESIGN_APPROVAL ( #34, ( #91 ) ) ;
#67 = CC_DESIGN_PERSON_AND_ORGANIZATION_ASSIGNMENT ( #98, #259, ( #293 ) ) ;
#68 = DIRECTION ( 'NONE',  ( 1.000000000000000000, 0.000000000000000000, 0.000000000000000000 ) ) ;
#69 = ORIENTED_EDGE ( 'NONE', *, *, #89, .F. ) ;
#70 = ORIENTED_EDGE ( 'NONE', *, *, #133, .F. ) ;
#71 = CALENDAR_DATE ( 2022, 20, 6 ) ;
#72 = DIRECTION ( 'NONE',  ( -0.000000000000000000, -0.000000000000000000, -1.000000000000000000 ) ) ;
#73 = APPROVAL ( #166, 'NEURÈENÝ' ) ;
#74 = AXIS2_PLACEMENT_3D ( 'NONE', #250, #35, #106 ) ;
#75 = ORIENTED_EDGE ( 'NONE', *, *, #276, .F. ) ;
#76 = VERTEX_POINT ( 'NONE', #165 ) ;
#77 = ORIENTED_EDGE ( 'NONE', *, *, #224, .F. ) ;
#78 = EDGE_CURVE ( 'NONE', #289, #117, #260, .T. ) ;
#79 = AXIS2_PLACEMENT_3D ( 'NONE', #221, #200, #295 ) ;
#80 = DIRECTION ( 'NONE',  ( -0.000000000000000000, -0.000000000000000000, -1.000000000000000000 ) ) ;
#81 = LINE ( 'NONE', #157, #43 ) ;
#82 = PLANE ( 'NONE',  #32 ) ;
#83 = CYLINDRICAL_SURFACE ( 'NONE', #153, 6.000000000000000888 ) ;
#84 = CIRCLE ( 'NONE', #286, 3.100000000000000089 ) ;
#85 = CARTESIAN_POINT ( 'NONE',  ( -6.000000000000000888, 0.000000000000000000, 0.000000000000000000 ) ) ;
#86 = ADVANCED_BREP_SHAPE_REPRESENTATION ( '39ad', ( #15, #162 ), #126 ) ;
#87 = AXIS2_PLACEMENT_3D ( 'NONE', #271, #173, #36 ) ;
#88 =( LENGTH_UNIT ( ) NAMED_UNIT ( * ) SI_UNIT ( .MILLI., .METRE. ) );
#89 = EDGE_CURVE ( 'NONE', #8, #215, #278, .T. ) ;
#90 = DIRECTION ( 'NONE',  ( 0.000000000000000000, 0.000000000000000000, 1.000000000000000000 ) ) ;
#91 = PRODUCT_DEFINITION ( 'NEZNÁMÝ', '', #149, #62 ) ;
#92 = PERSON_AND_ORGANIZATION ( #294, #298 ) ;
#93 = AXIS2_PLACEMENT_3D ( 'NONE', #104, #12, #296 ) ;
#94 = PERSON_AND_ORGANIZATION_ROLE ( 'design_supplier' ) ;
#95 = ORIENTED_EDGE ( 'NONE', *, *, #190, .F. ) ;
#96 = CALENDAR_DATE ( 2022, 20, 6 ) ;
#97 = ORIENTED_EDGE ( 'NONE', *, *, #302, .T. ) ;
#98 = PERSON_AND_ORGANIZATION ( #294, #298 ) ;
#99 = CARTESIAN_POINT ( 'NONE',  ( 0.000000000000000000, 0.000000000000000000, 5.000000000000000000 ) ) ;
#100 = ADVANCED_FACE ( 'NONE', ( #60 ), #83, .T. ) ;
#101 = DIRECTION ( 'NONE',  ( -0.000000000000000000, -0.000000000000000000, -1.000000000000000000 ) ) ;
#102 = DIRECTION ( 'NONE',  ( 1.000000000000000000, 0.000000000000000000, 0.000000000000000000 ) ) ;
#103 = AXIS2_PLACEMENT_3D ( 'NONE', #152, #244, #177 ) ;
#104 = CARTESIAN_POINT ( 'NONE',  ( 3.299999999999999822, 0.000000000000000000, 5.200000000000009948 ) ) ;
#105 = DIRECTION ( 'NONE',  ( -0.000000000000000000, -0.000000000000000000, -1.000000000000000000 ) ) ;
#106 = DIRECTION ( 'NONE',  ( 1.000000000000000000, 0.000000000000000000, 0.000000000000000000 ) ) ;
#107 = DIRECTION ( 'NONE',  ( -0.000000000000000000, -0.000000000000000000, -1.000000000000000000 ) ) ;
#108 = LOCAL_TIME ( 11, 56, 26.00000000000000000, #65 ) ;
#109 = EDGE_CURVE ( 'NONE', #285, #289, #226, .T. ) ;
#110 = CARTESIAN_POINT ( 'NONE',  ( 0.000000000000000000, 0.000000000000000000, 5.000000000000000000 ) ) ;
#111 = DIRECTION ( 'NONE',  ( 0.000000000000000000, 0.000000000000000000, 1.000000000000000000 ) ) ;
#112 = CC_DESIGN_APPROVAL ( #73, ( #293 ) ) ;
#113 = AXIS2_PLACEMENT_3D ( 'NONE', #202, #251, #225 ) ;
#114 = APPLICATION_CONTEXT ( 'configuration controlled 3d designs of mechanical parts and assemblies' ) ;
#115 = CARTESIAN_POINT ( 'NONE',  ( 0.000000000000000000, 0.000000000000000000, 0.000000000000000000 ) ) ;
#116 = CARTESIAN_POINT ( 'NONE',  ( 0.000000000000000000, 0.000000000000000000, 5.000000000000000000 ) ) ;
#117 = VERTEX_POINT ( 'NONE', #85 ) ;
#118 = CC_DESIGN_PERSON_AND_ORGANIZATION_ASSIGNMENT ( #161, #253, ( #4 ) ) ;
#119 = COORDINATED_UNIVERSAL_TIME_OFFSET ( 1, 0, .AHEAD. ) ;
#120 = ORIENTED_EDGE ( 'NONE', *, *, #37, .T. ) ;
#121 = PERSON_AND_ORGANIZATION ( #294, #298 ) ;
#122 = EDGE_LOOP ( 'NONE', ( #167, #124 ) ) ;
#123 = APPROVAL_ROLE ( '' ) ;
#124 = ORIENTED_EDGE ( 'NONE', *, *, #208, .T. ) ;
#125 = ADVANCED_FACE ( 'NONE', ( #39 ), #176, .F. ) ;
#126 =( GEOMETRIC_REPRESENTATION_CONTEXT ( 3 ) GLOBAL_UNCERTAINTY_ASSIGNED_CONTEXT ( ( #44 ) ) GLOBAL_UNIT_ASSIGNED_CONTEXT ( ( #88, #178, #209 ) ) REPRESENTATION_CONTEXT ( 'NONE', 'WORKASPACE' ) );
#127 = DIRECTION ( 'NONE',  ( -0.000000000000000000, -0.000000000000000000, -1.000000000000000000 ) ) ;
#128 = ORIENTED_EDGE ( 'NONE', *, *, #78, .T. ) ;
#129 = PLANE ( 'NONE',  #79 ) ;
#130 = CC_DESIGN_PERSON_AND_ORGANIZATION_ASSIGNMENT ( #146, #261, ( #149 ) ) ;
#131 = DIRECTION ( 'NONE',  ( -0.000000000000000000, -0.000000000000000000, -1.000000000000000000 ) ) ;
#132 = CYLINDRICAL_SURFACE ( 'NONE', #9, 3.100000000000000089 ) ;
#133 = EDGE_CURVE ( 'NONE', #215, #150, #81, .T. ) ;
#134 = CIRCLE ( 'NONE', #252, 6.000000000000000888 ) ;
#135 = CARTESIAN_POINT ( 'NONE',  ( -3.100000000000000089, 0.000000000000000000, 5.200000000000009948 ) ) ;
#136 = ADVANCED_FACE ( 'NONE', ( #19 ), #196, .T. ) ;
#137 = DIRECTION ( 'NONE',  ( 1.000000000000000000, 0.000000000000000000, 0.000000000000000000 ) ) ;
#138 = FACE_OUTER_BOUND ( 'NONE', #214, .T. ) ;
#139 = FACE_BOUND ( 'NONE', #284, .T. ) ;
#140 = CARTESIAN_POINT ( 'NONE',  ( -6.000000000000000888, 0.000000000000000000, 5.000000000000000000 ) ) ;
#141 = TOROIDAL_SURFACE ( 'NONE', #87, 3.299999999999999822, 0.2000000000000000111 ) ;
#142 = CALENDAR_DATE ( 2022, 20, 6 ) ;
#143 = ORIENTED_EDGE ( 'NONE', *, *, #267, .F. ) ;
#144 = ORIENTED_EDGE ( 'NONE', *, *, #37, .F. ) ;
#145 = ADVANCED_FACE ( 'NONE', ( #16 ), #141, .F. ) ;
#146 = PERSON_AND_ORGANIZATION ( #294, #298 ) ;
#147 = CYLINDRICAL_SURFACE ( 'NONE', #181, 3.100000000000000089 ) ;
#148 = AXIS2_PLACEMENT_3D ( 'NONE', #228, #204, #158 ) ;
#149 = PRODUCT_DEFINITION_FORMATION_WITH_SPECIFIED_SOURCE ( 'LIBOVOLNÝ', '', #4, .NOT_KNOWN. ) ;
#150 = VERTEX_POINT ( 'NONE', #61 ) ;
#151 = DIRECTION ( 'NONE',  ( -1.000000000000000000, 0.000000000000000000, 0.000000000000000000 ) ) ;
#152 = CARTESIAN_POINT ( 'NONE',  ( 0.000000000000000000, 0.000000000000000000, 5.200000000000009948 ) ) ;
#153 = AXIS2_PLACEMENT_3D ( 'NONE', #227, #80, #174 ) ;
#154 = DIRECTION ( 'NONE',  ( 1.000000000000000000, 0.000000000000000000, 0.000000000000000000 ) ) ;
#155 = CARTESIAN_POINT ( 'NONE',  ( 0.000000000000000000, 0.000000000000000000, 5.000000000000000000 ) ) ;
#156 = ADVANCED_FACE ( 'NONE', ( #55 ), #132, .T. ) ;
#157 = CARTESIAN_POINT ( 'NONE',  ( 3.100000000000000089, 3.796405077356794918E-16, 255.0000000000000000 ) ) ;
#158 = DIRECTION ( 'NONE',  ( 1.000000000000000000, 0.000000000000000000, 0.000000000000000000 ) ) ;
#159 = LOCAL_TIME ( 11, 56, 26.00000000000000000, #3 ) ;
#160 = PERSON_AND_ORGANIZATION ( #294, #298 ) ;
#161 = PERSON_AND_ORGANIZATION ( #294, #298 ) ;
#162 = AXIS2_PLACEMENT_3D ( 'NONE', #115, #24, #41 ) ;
#163 = DIRECTION ( 'NONE',  ( 1.000000000000000000, 0.000000000000000000, -0.000000000000000000 ) ) ;
#164 = EDGE_CURVE ( 'NONE', #76, #117, #216, .T. ) ;
#165 = CARTESIAN_POINT ( 'NONE',  ( 6.000000000000000888, 7.347880794884120722E-16, 0.000000000000000000 ) ) ;
#166 = APPROVAL_STATUS ( 'not_yet_approved' ) ;
#167 = ORIENTED_EDGE ( 'NONE', *, *, #89, .T. ) ;
#168 = VECTOR ( 'NONE', #131, 1000.000000000000000 ) ;
#169 = EDGE_LOOP ( 'NONE', ( #33, #238, #49, #194 ) ) ;
#170 = ORIENTED_EDGE ( 'NONE', *, *, #164, .F. ) ;
#171 = ORIENTED_EDGE ( 'NONE', *, *, #287, .T. ) ;
#172 = LOCAL_TIME ( 11, 56, 26.00000000000000000, #119 ) ;
#173 = DIRECTION ( 'NONE',  ( 0.000000000000000000, 0.000000000000000000, 1.000000000000000000 ) ) ;
#174 = DIRECTION ( 'NONE',  ( -1.000000000000000000, 0.000000000000000000, 0.000000000000000000 ) ) ;
#175 = DIRECTION ( 'NONE',  ( 1.000000000000000000, 0.000000000000000000, -0.000000000000000000 ) ) ;
#176 = TOROIDAL_SURFACE ( 'NONE', #103, 3.299999999999999822, 0.2000000000000000111 ) ;
#177 = DIRECTION ( 'NONE',  ( 1.000000000000000000, 0.000000000000000000, 0.000000000000000000 ) ) ;
#178 =( NAMED_UNIT ( * ) PLANE_ANGLE_UNIT ( ) SI_UNIT ( $, .RADIAN. ) );
#179 = CC_DESIGN_SECURITY_CLASSIFICATION ( #293, ( #149 ) ) ;
#180 = CARTESIAN_POINT ( 'NONE',  ( 0.000000000000000000, 0.000000000000000000, 5.000000000000000000 ) ) ;
#181 = AXIS2_PLACEMENT_3D ( 'NONE', #240, #31, #282 ) ;
#182 = DIRECTION ( 'NONE',  ( 0.000000000000000000, 0.000000000000000000, 1.000000000000000000 ) ) ;
#183 = PERSON_AND_ORGANIZATION_ROLE ( 'creator' ) ;
#184 = DIRECTION ( 'NONE',  ( 1.224646799147353207E-16, 1.000000000000000000, -0.000000000000000000 ) ) ;
#185 = ORIENTED_EDGE ( 'NONE', *, *, #109, .T. ) ;
#186 = AXIS2_PLACEMENT_3D ( 'NONE', #110, #254, #203 ) ;
#187 = APPROVAL_DATE_TIME ( #47, #63 ) ;
#188 = DATE_TIME_ROLE ( 'classification_date' ) ;
#189 = ORIENTED_EDGE ( 'NONE', *, *, #241, .T. ) ;
#190 = EDGE_CURVE ( 'NONE', #150, #268, #248, .T. ) ;
#191 = DATE_AND_TIME ( #96, #235 ) ;
#192 = ORIENTED_EDGE ( 'NONE', *, *, #133, .T. ) ;
#193 = AXIS2_PLACEMENT_3D ( 'NONE', #180, #301, #137 ) ;
#194 = ORIENTED_EDGE ( 'NONE', *, *, #78, .F. ) ;
#195 = EDGE_LOOP ( 'NONE', ( #25, #29, #48, #143 ) ) ;
#196 = CYLINDRICAL_SURFACE ( 'NONE', #113, 6.000000000000000888 ) ;
#197 = APPROVAL_PERSON_ORGANIZATION ( #236, #73, #213 ) ;
#198 = FACE_OUTER_BOUND ( 'NONE', #122, .T. ) ;
#199 = ADVANCED_FACE ( 'NONE', ( #198 ), #129, .T. ) ;
#200 = DIRECTION ( 'NONE',  ( 0.000000000000000000, 0.000000000000000000, 1.000000000000000000 ) ) ;
#201 = APPROVAL_PERSON_ORGANIZATION ( #160, #34, #42 ) ;
#202 = CARTESIAN_POINT ( 'NONE',  ( 0.000000000000000000, 0.000000000000000000, 5.000000000000000000 ) ) ;
#203 = DIRECTION ( 'NONE',  ( 1.000000000000000000, 0.000000000000000000, 0.000000000000000000 ) ) ;
#204 = DIRECTION ( 'NONE',  ( 0.000000000000000000, 0.000000000000000000, 1.000000000000000000 ) ) ;
#205 = CIRCLE ( 'NONE', #280, 0.2000000000000000944 ) ;
#206 = APPROVAL_DATE_TIME ( #23, #34 ) ;
#207 = APPLICATION_CONTEXT ( 'configuration controlled 3d designs of mechanical parts and assemblies' ) ;
#208 = EDGE_CURVE ( 'NONE', #215, #8, #263, .T. ) ;
#209 =( NAMED_UNIT ( * ) SI_UNIT ( $, .STERADIAN. ) SOLID_ANGLE_UNIT ( ) );
#210 = CIRCLE ( 'NONE', #148, 3.100000000000000089 ) ;
#211 = DATE_AND_TIME ( #7, #108 ) ;
#212 = EDGE_LOOP ( 'NONE', ( #243, #192, #189, #77 ) ) ;
#213 = APPROVAL_ROLE ( '' ) ;
#214 = EDGE_LOOP ( 'NONE', ( #171, #185 ) ) ;
#215 = VERTEX_POINT ( 'NONE', #272 ) ;
#216 = CIRCLE ( 'NONE', #74, 6.000000000000000888 ) ;
#217 = VERTEX_POINT ( 'NONE', #56 ) ;
#218 = ADVANCED_FACE ( 'NONE', ( #247 ), #82, .F. ) ;
#219 = ORIENTED_EDGE ( 'NONE', *, *, #287, .F. ) ;
#220 = CC_DESIGN_DATE_AND_TIME_ASSIGNMENT ( #211, #290, ( #91 ) ) ;
#221 = CARTESIAN_POINT ( 'NONE',  ( 0.000000000000000000, 0.000000000000000000, 255.0000000000000000 ) ) ;
#222 = AXIS2_PLACEMENT_3D ( 'NONE', #27, #299, #14 ) ;
#223 = DIRECTION ( 'NONE',  ( 0.000000000000000000, 0.000000000000000000, 1.000000000000000000 ) ) ;
#224 = EDGE_CURVE ( 'NONE', #8, #262, #57, .T. ) ;
#225 = DIRECTION ( 'NONE',  ( -1.000000000000000000, 0.000000000000000000, 0.000000000000000000 ) ) ;
#226 = CIRCLE ( 'NONE', #269, 6.000000000000000888 ) ;
#227 = CARTESIAN_POINT ( 'NONE',  ( 0.000000000000000000, 0.000000000000000000, 5.000000000000000000 ) ) ;
#228 = CARTESIAN_POINT ( 'NONE',  ( 0.000000000000000000, 0.000000000000000000, 5.200000000000009948 ) ) ;
#229 = CALENDAR_DATE ( 2022, 20, 6 ) ;
#230 = CIRCLE ( 'NONE', #186, 6.000000000000000888 ) ;
#231 = EDGE_CURVE ( 'NONE', #262, #217, #205, .T. ) ;
#232 = CARTESIAN_POINT ( 'NONE',  ( 0.000000000000000000, 0.000000000000000000, 0.000000000000000000 ) ) ;
#233 = PERSON_AND_ORGANIZATION ( #294, #298 ) ;
#234 = CARTESIAN_POINT ( 'NONE',  ( 6.000000000000000888, 7.347880794884120722E-16, 5.000000000000000000 ) ) ;
#235 = LOCAL_TIME ( 11, 56, 26.00000000000000000, #239 ) ;
#236 = PERSON_AND_ORGANIZATION ( #294, #298 ) ;
#237 = EDGE_LOOP ( 'NONE', ( #70, #69, #10, #264 ) ) ;
#238 = ORIENTED_EDGE ( 'NONE', *, *, #6, .T. ) ;
#239 = COORDINATED_UNIVERSAL_TIME_OFFSET ( 1, 0, .AHEAD. ) ;
#240 = CARTESIAN_POINT ( 'NONE',  ( 0.000000000000000000, 0.000000000000000000, 255.0000000000000000 ) ) ;
#241 = EDGE_CURVE ( 'NONE', #150, #262, #84, .T. ) ;
#242 = CLOSED_SHELL ( 'NONE', ( #145, #54, #136, #100, #246, #218, #156, #199, #125 ) ) ;
#243 = ORIENTED_EDGE ( 'NONE', *, *, #208, .F. ) ;
#244 = DIRECTION ( 'NONE',  ( 0.000000000000000000, 0.000000000000000000, 1.000000000000000000 ) ) ;
#245 = PRODUCT_DEFINITION_SHAPE ( 'NONE', 'NONE',  #91 ) ;
#246 = ADVANCED_FACE ( 'NONE', ( #139, #138 ), #256, .T. ) ;
#247 = FACE_OUTER_BOUND ( 'NONE', #51, .T. ) ;
#248 = CIRCLE ( 'NONE', #93, 0.1999999999999996503 ) ;
#249 = CARTESIAN_POINT ( 'NONE',  ( -3.100000000000000089, 0.000000000000000000, 255.0000000000000000 ) ) ;
#250 = CARTESIAN_POINT ( 'NONE',  ( 0.000000000000000000, 0.000000000000000000, 0.000000000000000000 ) ) ;
#251 = DIRECTION ( 'NONE',  ( -0.000000000000000000, -0.000000000000000000, -1.000000000000000000 ) ) ;
#252 = AXIS2_PLACEMENT_3D ( 'NONE', #232, #90, #68 ) ;
#253 = PERSON_AND_ORGANIZATION_ROLE ( 'design_owner' ) ;
#254 = DIRECTION ( 'NONE',  ( 0.000000000000000000, 0.000000000000000000, 1.000000000000000000 ) ) ;
#255 = APPROVAL_STATUS ( 'not_yet_approved' ) ;
#256 = PLANE ( 'NONE',  #257 ) ;
#257 = AXIS2_PLACEMENT_3D ( 'NONE', #116, #111, #163 ) ;
#258 = DIRECTION ( 'NONE',  ( -1.000000000000000000, 1.224646799147353207E-16, 0.000000000000000000 ) ) ;
#259 = PERSON_AND_ORGANIZATION_ROLE ( 'classification_officer' ) ;
#260 = LINE ( 'NONE', #140, #52 ) ;
#261 = PERSON_AND_ORGANIZATION_ROLE ( 'creator' ) ;
#262 = VERTEX_POINT ( 'NONE', #135 ) ;
#263 = CIRCLE ( 'NONE', #303, 3.100000000000000089 ) ;
#264 = ORIENTED_EDGE ( 'NONE', *, *, #276, .T. ) ;
#265 = SHAPE_DEFINITION_REPRESENTATION ( #245, #86 ) ;
#266 = FACE_OUTER_BOUND ( 'NONE', #212, .T. ) ;
#267 = EDGE_CURVE ( 'NONE', #217, #268, #22, .T. ) ;
#268 = VERTEX_POINT ( 'NONE', #45 ) ;
#269 = AXIS2_PLACEMENT_3D ( 'NONE', #155, #270, #292 ) ;
#270 = DIRECTION ( 'NONE',  ( 0.000000000000000000, 0.000000000000000000, 1.000000000000000000 ) ) ;
#271 = CARTESIAN_POINT ( 'NONE',  ( 0.000000000000000000, 0.000000000000000000, 5.200000000000009948 ) ) ;
#272 = CARTESIAN_POINT ( 'NONE',  ( 3.100000000000000089, 3.796405077356794918E-16, 255.0000000000000000 ) ) ;
#273 = CARTESIAN_POINT ( 'NONE',  ( 0.000000000000000000, 0.000000000000000000, 255.0000000000000000 ) ) ;
#274 = CARTESIAN_POINT ( 'NONE',  ( 0.000000000000000000, 0.000000000000000000, 255.0000000000000000 ) ) ;
#275 = CARTESIAN_POINT ( 'NONE',  ( -6.000000000000000888, 0.000000000000000000, 5.000000000000000000 ) ) ;
#276 = EDGE_CURVE ( 'NONE', #262, #150, #210, .T. ) ;
#277 = COORDINATED_UNIVERSAL_TIME_OFFSET ( 1, 0, .AHEAD. ) ;
#278 = CIRCLE ( 'NONE', #222, 3.100000000000000089 ) ;
#279 = CARTESIAN_POINT ( 'NONE',  ( 0.000000000000000000, 0.000000000000000000, 5.200000000000009948 ) ) ;
#280 = AXIS2_PLACEMENT_3D ( 'NONE', #297, #184, #258 ) ;
#281 = ORIENTED_EDGE ( 'NONE', *, *, #302, .F. ) ;
#282 = DIRECTION ( 'NONE',  ( -1.000000000000000000, 0.000000000000000000, 0.000000000000000000 ) ) ;
#283 = APPROVAL_DATE_TIME ( #191, #73 ) ;
#284 = EDGE_LOOP ( 'NONE', ( #120, #46 ) ) ;
#285 = VERTEX_POINT ( 'NONE', #300 ) ;
#286 = AXIS2_PLACEMENT_3D ( 'NONE', #279, #182, #20 ) ;
#287 = EDGE_CURVE ( 'NONE', #289, #285, #230, .T. ) ;
#288 = APPROVAL_STATUS ( 'not_yet_approved' ) ;
#289 = VERTEX_POINT ( 'NONE', #275 ) ;
#290 = DATE_TIME_ROLE ( 'creation_date' ) ;
#291 = LINE ( 'NONE', #234, #58 ) ;
#292 = DIRECTION ( 'NONE',  ( 1.000000000000000000, 0.000000000000000000, 0.000000000000000000 ) ) ;
#293 = SECURITY_CLASSIFICATION ( '', '', #50 ) ;
#294 = PERSON ( 'NEURÈENÝ', 'NEURÈENÝ', 'NEURÈENÝ', ('NEURÈENÝ'), ('NEURÈENÝ'), ('NEURÈENÝ') ) ;
#295 = DIRECTION ( 'NONE',  ( 1.000000000000000000, 0.000000000000000000, -0.000000000000000000 ) ) ;
#296 = DIRECTION ( 'NONE',  ( 0.000000000000000000, 0.000000000000000000, -1.000000000000000000 ) ) ;
#297 = CARTESIAN_POINT ( 'NONE',  ( -3.299999999999999822, 4.041334437186265510E-16, 5.200000000000009948 ) ) ;
#298 = ORGANIZATION ( 'NEURÈENÝ', 'NEURÈENÝ', '' ) ;
#299 = DIRECTION ( 'NONE',  ( 0.000000000000000000, 0.000000000000000000, 1.000000000000000000 ) ) ;
#300 = CARTESIAN_POINT ( 'NONE',  ( 6.000000000000000888, 7.347880794884120722E-16, 5.000000000000000000 ) ) ;
#301 = DIRECTION ( 'NONE',  ( -0.000000000000000000, -0.000000000000000000, -1.000000000000000000 ) ) ;
#302 = EDGE_CURVE ( 'NONE', #117, #76, #134, .T. ) ;
#303 = AXIS2_PLACEMENT_3D ( 'NONE', #273, #223, #154 ) ;
#304 = APPLICATION_PROTOCOL_DEFINITION ( 'international standard', 'config_control_design', 1994, #207 ) ;
#305 = APPLICATION_PROTOCOL_DEFINITION ( 'international standard', 'config_control_design', 1994, #114 ) ;
#306 = MECHANICAL_CONTEXT ( 'NONE', #114, 'mechanical' ) ;
#307 = CC_DESIGN_PERSON_AND_ORGANIZATION_ASSIGNMENT ( #92, #183, ( #91 ) ) ;
ENDSEC;
END-ISO-10303-21;
