ISO-10303-21;
HEADER;
FILE_DESCRIPTION (( 'STEP AP203' ),
    '1' );
FILE_NAME ('14e4.STEP',
    '2022-06-20T09:19:18',
    ( '' ),
    ( '' ),
    'SwSTEP 2.0',
    'SolidWorks 2019',
    '' );
FILE_SCHEMA (( 'CONFIG_CONTROL_DESIGN' ));
ENDSEC;

DATA;
#1 = EDGE_CURVE ( 'NONE', #43, #306, #307, .T. ) ;
#2 = MANIFOLD_SOLID_BREP ( 'Zaoblit1', #99 ) ;
#3 = CYLINDRICAL_SURFACE ( 'NONE', #266, 10.00000000000000000 ) ;
#4 = AXIS2_PLACEMENT_3D ( 'NONE', #23, #120, #213 ) ;
#5 = DIRECTION ( 'NONE',  ( 1.000000000000000000, 0.000000000000000000, 0.000000000000000000 ) ) ;
#6 = DIRECTION ( 'NONE',  ( -0.000000000000000000, -0.000000000000000000, -1.000000000000000000 ) ) ;
#7 = CARTESIAN_POINT ( 'NONE',  ( 0.000000000000000000, 0.000000000000000000, 1208.000000000000000 ) ) ;
#8 = CC_DESIGN_APPROVAL ( #52, ( #241 ) ) ;
#9 = DIRECTION ( 'NONE',  ( 1.000000000000000000, 0.000000000000000000, 0.000000000000000000 ) ) ;
#10 = CALENDAR_DATE ( 2022, 20, 6 ) ;
#11 = CC_DESIGN_PERSON_AND_ORGANIZATION_ASSIGNMENT ( #298, #55, ( #241 ) ) ;
#12 =( NAMED_UNIT ( * ) PLANE_ANGLE_UNIT ( ) SI_UNIT ( $, .RADIAN. ) );
#13 = ORIENTED_EDGE ( 'NONE', *, *, #183, .F. ) ;
#14 = VECTOR ( 'NONE', #285, 1000.000000000000000 ) ;
#15 = APPLICATION_PROTOCOL_DEFINITION ( 'international standard', 'config_control_design', 1994, #305 ) ;
#16 = PERSON ( 'NEURÈENÝ', 'NEURÈENÝ', 'NEURÈENÝ', ('NEURÈENÝ'), ('NEURÈENÝ'), ('NEURÈENÝ') ) ;
#17 = DATE_AND_TIME ( #229, #110 ) ;
#18 = DIRECTION ( 'NONE',  ( -0.000000000000000000, -0.000000000000000000, -1.000000000000000000 ) ) ;
#19 = DIRECTION ( 'NONE',  ( 1.000000000000000000, 0.000000000000000000, -0.000000000000000000 ) ) ;
#20 = EDGE_CURVE ( 'NONE', #91, #279, #281, .T. ) ;
#21 = ORIENTED_EDGE ( 'NONE', *, *, #24, .F. ) ;
#22 = CARTESIAN_POINT ( 'NONE',  ( -13.00000000000000178, 0.000000000000000000, 8.000000000000000000 ) ) ;
#23 = CARTESIAN_POINT ( 'NONE',  ( 0.000000000000000000, 0.000000000000000000, 1208.000000000000000 ) ) ;
#24 = EDGE_CURVE ( 'NONE', #306, #64, #271, .T. ) ;
#25 = FACE_OUTER_BOUND ( 'NONE', #304, .T. ) ;
#26 = DIRECTION ( 'NONE',  ( -0.000000000000000000, -0.000000000000000000, -1.000000000000000000 ) ) ;
#27 = DIRECTION ( 'NONE',  ( -0.000000000000000000, -0.000000000000000000, -1.000000000000000000 ) ) ;
#28 = DIRECTION ( 'NONE',  ( 0.000000000000000000, 0.000000000000000000, 1.000000000000000000 ) ) ;
#29 = FACE_OUTER_BOUND ( 'NONE', #139, .T. ) ;
#30 = CIRCLE ( 'NONE', #118, 13.00000000000000178 ) ;
#31 = APPROVAL_STATUS ( 'not_yet_approved' ) ;
#32 = ADVANCED_FACE ( 'NONE', ( #71 ), #40, .F. ) ;
#33 = PERSON_AND_ORGANIZATION ( #16, #202 ) ;
#34 = ORIENTED_EDGE ( 'NONE', *, *, #157, .T. ) ;
#35 =( LENGTH_UNIT ( ) NAMED_UNIT ( * ) SI_UNIT ( .MILLI., .METRE. ) );
#36 = VECTOR ( 'NONE', #217, 1000.000000000000000 ) ;
#37 = CALENDAR_DATE ( 2022, 20, 6 ) ;
#38 = PERSON_AND_ORGANIZATION_ROLE ( 'creator' ) ;
#39 = FACE_OUTER_BOUND ( 'NONE', #63, .T. ) ;
#40 = TOROIDAL_SURFACE ( 'NONE', #215, 10.20000000000000107, 0.2000000000000000111 ) ;
#41 = PLANE ( 'NONE',  #255 ) ;
#42 = VERTEX_POINT ( 'NONE', #261 ) ;
#43 = VERTEX_POINT ( 'NONE', #283 ) ;
#44 = AXIS2_PLACEMENT_3D ( 'NONE', #251, #203, #181 ) ;
#45 = DIRECTION ( 'NONE',  ( 1.000000000000000000, 0.000000000000000000, 0.000000000000000000 ) ) ;
#46 = ADVANCED_FACE ( 'NONE', ( #141 ), #237, .T. ) ;
#47 = DIRECTION ( 'NONE',  ( 1.000000000000000000, 0.000000000000000000, -0.000000000000000000 ) ) ;
#48 = DIRECTION ( 'NONE',  ( 1.000000000000000000, 0.000000000000000000, 0.000000000000000000 ) ) ;
#49 = CARTESIAN_POINT ( 'NONE',  ( 10.00000000000000000, 1.224646799147353256E-15, 1208.000000000000000 ) ) ;
#50 = CIRCLE ( 'NONE', #84, 10.00000000000000000 ) ;
#51 = PRODUCT_DEFINITION_SHAPE ( 'NONE', 'NONE',  #280 ) ;
#52 = APPROVAL ( #150, 'NEURÈENÝ' ) ;
#53 = DIRECTION ( 'NONE',  ( 0.000000000000000000, 0.000000000000000000, 1.000000000000000000 ) ) ;
#54 = CARTESIAN_POINT ( 'NONE',  ( 0.000000000000000000, 0.000000000000000000, 0.000000000000000000 ) ) ;
#55 = PERSON_AND_ORGANIZATION_ROLE ( 'classification_officer' ) ;
#56 = TOROIDAL_SURFACE ( 'NONE', #72, 10.20000000000000107, 0.2000000000000000111 ) ;
#57 = DATE_TIME_ROLE ( 'classification_date' ) ;
#58 = PERSON_AND_ORGANIZATION ( #16, #202 ) ;
#59 = CC_DESIGN_APPROVAL ( #287, ( #196 ) ) ;
#60 = AXIS2_PLACEMENT_3D ( 'NONE', #145, #28, #5 ) ;
#61 = ADVANCED_FACE ( 'NONE', ( #39 ), #70, .T. ) ;
#62 = DATE_AND_TIME ( #226, #104 ) ;
#63 = EDGE_LOOP ( 'NONE', ( #113, #201, #228, #227 ) ) ;
#64 = VERTEX_POINT ( 'NONE', #161 ) ;
#65 = ADVANCED_BREP_SHAPE_REPRESENTATION ( '14e4', ( #2, #44 ), #88 ) ;
#66 = CARTESIAN_POINT ( 'NONE',  ( 0.000000000000000000, 0.000000000000000000, 8.199999999999985079 ) ) ;
#67 = CC_DESIGN_PERSON_AND_ORGANIZATION_ASSIGNMENT ( #174, #152, ( #196 ) ) ;
#68 = CC_DESIGN_APPROVAL ( #164, ( #280 ) ) ;
#69 = CARTESIAN_POINT ( 'NONE',  ( 0.000000000000000000, 0.000000000000000000, 8.000000000000000000 ) ) ;
#70 = CYLINDRICAL_SURFACE ( 'NONE', #94, 13.00000000000000178 ) ;
#71 = FACE_OUTER_BOUND ( 'NONE', #296, .T. ) ;
#72 = AXIS2_PLACEMENT_3D ( 'NONE', #169, #263, #48 ) ;
#73 = CARTESIAN_POINT ( 'NONE',  ( 0.000000000000000000, 0.000000000000000000, 0.000000000000000000 ) ) ;
#74 = CARTESIAN_POINT ( 'NONE',  ( -13.00000000000000178, 0.000000000000000000, 0.000000000000000000 ) ) ;
#75 = DIRECTION ( 'NONE',  ( -1.000000000000000000, 0.000000000000000000, 0.000000000000000000 ) ) ;
#76 = DIRECTION ( 'NONE',  ( -0.000000000000000000, -0.000000000000000000, -1.000000000000000000 ) ) ;
#77 = AXIS2_PLACEMENT_3D ( 'NONE', #7, #6, #121 ) ;
#78 = CARTESIAN_POINT ( 'NONE',  ( 0.000000000000000000, 0.000000000000000000, 8.000000000000000000 ) ) ;
#79 = ADVANCED_FACE ( 'NONE', ( #256 ), #41, .F. ) ;
#80 = PERSON_AND_ORGANIZATION_ROLE ( 'design_owner' ) ;
#81 = DATE_AND_TIME ( #10, #220 ) ;
#82 = VECTOR ( 'NONE', #95, 1000.000000000000000 ) ;
#83 = ORIENTED_EDGE ( 'NONE', *, *, #238, .F. ) ;
#84 = AXIS2_PLACEMENT_3D ( 'NONE', #146, #105, #173 ) ;
#85 = CARTESIAN_POINT ( 'NONE',  ( -10.00000000000000000, 0.000000000000000000, 8.199999999999985079 ) ) ;
#86 = VERTEX_POINT ( 'NONE', #209 ) ;
#87 = DATE_AND_TIME ( #294, #171 ) ;
#88 =( GEOMETRIC_REPRESENTATION_CONTEXT ( 3 ) GLOBAL_UNCERTAINTY_ASSIGNED_CONTEXT ( ( #180 ) ) GLOBAL_UNIT_ASSIGNED_CONTEXT ( ( #35, #12, #299 ) ) REPRESENTATION_CONTEXT ( 'NONE', 'WORKASPACE' ) );
#89 = VERTEX_POINT ( 'NONE', #302 ) ;
#90 = CC_DESIGN_DATE_AND_TIME_ASSIGNMENT ( #133, #223, ( #280 ) ) ;
#91 = VERTEX_POINT ( 'NONE', #93 ) ;
#92 = SHAPE_DEFINITION_REPRESENTATION ( #51, #65 ) ;
#93 = CARTESIAN_POINT ( 'NONE',  ( -13.00000000000000178, 0.000000000000000000, 8.000000000000000000 ) ) ;
#94 = AXIS2_PLACEMENT_3D ( 'NONE', #231, #18, #207 ) ;
#95 = DIRECTION ( 'NONE',  ( -0.000000000000000000, -0.000000000000000000, -1.000000000000000000 ) ) ;
#96 = ORIENTED_EDGE ( 'NONE', *, *, #134, .F. ) ;
#97 = EDGE_CURVE ( 'NONE', #64, #188, #162, .T. ) ;
#98 = ORIENTED_EDGE ( 'NONE', *, *, #97, .F. ) ;
#99 = CLOSED_SHELL ( 'NONE', ( #275, #130, #61, #293, #268, #79, #114, #46, #32 ) ) ;
#100 = DIRECTION ( 'NONE',  ( 0.000000000000000000, 0.000000000000000000, 1.000000000000000000 ) ) ;
#101 = CARTESIAN_POINT ( 'NONE',  ( 0.000000000000000000, 0.000000000000000000, 8.000000000000000000 ) ) ;
#102 = PRODUCT_RELATED_PRODUCT_CATEGORY ( 'detail', '', ( #166 ) ) ;
#103 = CARTESIAN_POINT ( 'NONE',  ( 0.000000000000000000, 0.000000000000000000, 8.000000000000000000 ) ) ;
#104 = LOCAL_TIME ( 11, 19, 18.00000000000000000, #205 ) ;
#105 = DIRECTION ( 'NONE',  ( 0.000000000000000000, 0.000000000000000000, 1.000000000000000000 ) ) ;
#106 = EDGE_CURVE ( 'NONE', #86, #43, #187, .T. ) ;
#107 = DIRECTION ( 'NONE',  ( 0.000000000000000000, 0.000000000000000000, 1.000000000000000000 ) ) ;
#108 = APPROVAL_ROLE ( '' ) ;
#109 = ORIENTED_EDGE ( 'NONE', *, *, #106, .T. ) ;
#110 = LOCAL_TIME ( 11, 19, 18.00000000000000000, #258 ) ;
#111 = CC_DESIGN_PERSON_AND_ORGANIZATION_ASSIGNMENT ( #278, #249, ( #280 ) ) ;
#112 = APPLICATION_PROTOCOL_DEFINITION ( 'international standard', 'config_control_design', 1994, #290 ) ;
#113 = ORIENTED_EDGE ( 'NONE', *, *, #242, .F. ) ;
#114 = ADVANCED_FACE ( 'NONE', ( #269 ), #3, .T. ) ;
#115 = VERTEX_POINT ( 'NONE', #265 ) ;
#116 = ORIENTED_EDGE ( 'NONE', *, *, #1, .T. ) ;
#117 = CARTESIAN_POINT ( 'NONE',  ( -10.00000000000000000, 0.000000000000000000, 1208.000000000000000 ) ) ;
#118 = AXIS2_PLACEMENT_3D ( 'NONE', #78, #100, #267 ) ;
#119 = EDGE_LOOP ( 'NONE', ( #191, #155 ) ) ;
#120 = DIRECTION ( 'NONE',  ( 0.000000000000000000, 0.000000000000000000, 1.000000000000000000 ) ) ;
#121 = DIRECTION ( 'NONE',  ( -1.000000000000000000, 0.000000000000000000, 0.000000000000000000 ) ) ;
#122 = CIRCLE ( 'NONE', #132, 13.00000000000000178 ) ;
#123 = CYLINDRICAL_SURFACE ( 'NONE', #77, 10.00000000000000000 ) ;
#124 = DIRECTION ( 'NONE',  ( 0.000000000000000000, 0.000000000000000000, -1.000000000000000000 ) ) ;
#125 = FACE_BOUND ( 'NONE', #158, .T. ) ;
#126 = CARTESIAN_POINT ( 'NONE',  ( 0.000000000000000000, 0.000000000000000000, 8.000000000000000000 ) ) ;
#127 = APPROVAL_DATE_TIME ( #62, #287 ) ;
#128 = PERSON_AND_ORGANIZATION ( #16, #202 ) ;
#129 = ORIENTED_EDGE ( 'NONE', *, *, #20, .T. ) ;
#130 = ADVANCED_FACE ( 'NONE', ( #262 ), #123, .T. ) ;
#131 = MECHANICAL_CONTEXT ( 'NONE', #290, 'mechanical' ) ;
#132 = AXIS2_PLACEMENT_3D ( 'NONE', #73, #107, #170 ) ;
#133 = DATE_AND_TIME ( #37, #156 ) ;
#134 = EDGE_CURVE ( 'NONE', #89, #115, #144, .T. ) ;
#135 = ORIENTED_EDGE ( 'NONE', *, *, #300, .F. ) ;
#136 = VECTOR ( 'NONE', #244, 1000.000000000000000 ) ;
#137 = CARTESIAN_POINT ( 'NONE',  ( 0.000000000000000000, 0.000000000000000000, 0.000000000000000000 ) ) ;
#138 = ORIENTED_EDGE ( 'NONE', *, *, #1, .F. ) ;
#139 = EDGE_LOOP ( 'NONE', ( #151, #185 ) ) ;
#140 = APPROVAL_ROLE ( '' ) ;
#141 = FACE_OUTER_BOUND ( 'NONE', #276, .T. ) ;
#142 = DIRECTION ( 'NONE',  ( 1.000000000000000000, 0.000000000000000000, 0.000000000000000000 ) ) ;
#143 = FACE_OUTER_BOUND ( 'NONE', #257, .T. ) ;
#144 = LINE ( 'NONE', #218, #36 ) ;
#145 = CARTESIAN_POINT ( 'NONE',  ( 0.000000000000000000, 0.000000000000000000, 8.199999999999985079 ) ) ;
#146 = CARTESIAN_POINT ( 'NONE',  ( 0.000000000000000000, 0.000000000000000000, 8.199999999999985079 ) ) ;
#147 = CIRCLE ( 'NONE', #277, 13.00000000000000178 ) ;
#148 = COORDINATED_UNIVERSAL_TIME_OFFSET ( 1, 0, .AHEAD. ) ;
#149 = ORIENTED_EDGE ( 'NONE', *, *, #97, .T. ) ;
#150 = APPROVAL_STATUS ( 'not_yet_approved' ) ;
#151 = ORIENTED_EDGE ( 'NONE', *, *, #300, .T. ) ;
#152 = PERSON_AND_ORGANIZATION_ROLE ( 'design_supplier' ) ;
#153 = ORIENTED_EDGE ( 'NONE', *, *, #264, .F. ) ;
#154 = APPROVAL_STATUS ( 'not_yet_approved' ) ;
#155 = ORIENTED_EDGE ( 'NONE', *, *, #246, .F. ) ;
#156 = LOCAL_TIME ( 11, 19, 18.00000000000000000, #252 ) ;
#157 = EDGE_CURVE ( 'NONE', #188, #64, #230, .T. ) ;
#158 = EDGE_LOOP ( 'NONE', ( #34, #149 ) ) ;
#159 = APPROVAL_DATE_TIME ( #17, #52 ) ;
#160 = DIRECTION ( 'NONE',  ( -1.000000000000000000, 1.224646799147353207E-16, 0.000000000000000000 ) ) ;
#161 = CARTESIAN_POINT ( 'NONE',  ( -10.20000000000000107, 1.249139735130300365E-15, 7.999999999999992895 ) ) ;
#162 = CIRCLE ( 'NONE', #167, 10.20000000000000107 ) ;
#163 = ORIENTED_EDGE ( 'NONE', *, *, #200, .F. ) ;
#164 = APPROVAL ( #154, 'NEURÈENÝ' ) ;
#165 = ORIENTED_EDGE ( 'NONE', *, *, #186, .T. ) ;
#166 = PRODUCT ( '14e4', '14e4', '', ( #131 ) ) ;
#167 = AXIS2_PLACEMENT_3D ( 'NONE', #69, #26, #9 ) ;
#168 = PLANE ( 'NONE',  #291 ) ;
#169 = CARTESIAN_POINT ( 'NONE',  ( 0.000000000000000000, 0.000000000000000000, 8.199999999999985079 ) ) ;
#170 = DIRECTION ( 'NONE',  ( 1.000000000000000000, 0.000000000000000000, 0.000000000000000000 ) ) ;
#171 = LOCAL_TIME ( 11, 19, 18.00000000000000000, #204 ) ;
#172 = LINE ( 'NONE', #49, #136 ) ;
#173 = DIRECTION ( 'NONE',  ( 1.000000000000000000, 0.000000000000000000, 0.000000000000000000 ) ) ;
#174 = PERSON_AND_ORGANIZATION ( #16, #202 ) ;
#175 = AXIS2_PLACEMENT_3D ( 'NONE', #259, #284, #160 ) ;
#176 = AXIS2_PLACEMENT_3D ( 'NONE', #103, #76, #195 ) ;
#177 = DIRECTION ( 'NONE',  ( 0.000000000000000000, 0.000000000000000000, 1.000000000000000000 ) ) ;
#178 = CC_DESIGN_PERSON_AND_ORGANIZATION_ASSIGNMENT ( #253, #38, ( #196 ) ) ;
#179 = EDGE_LOOP ( 'NONE', ( #163, #83, #116, #210 ) ) ;
#180 = UNCERTAINTY_MEASURE_WITH_UNIT (LENGTH_MEASURE( 1.000000000000000082E-05 ), #35, 'distance_accuracy_value', 'NONE');
#181 = DIRECTION ( 'NONE',  ( 1.000000000000000000, 0.000000000000000000, 0.000000000000000000 ) ) ;
#182 = AXIS2_PLACEMENT_3D ( 'NONE', #239, #193, #124 ) ;
#183 = EDGE_CURVE ( 'NONE', #42, #306, #50, .T. ) ;
#184 = ORIENTED_EDGE ( 'NONE', *, *, #157, .F. ) ;
#185 = ORIENTED_EDGE ( 'NONE', *, *, #242, .T. ) ;
#186 = EDGE_CURVE ( 'NONE', #279, #115, #122, .T. ) ;
#187 = CIRCLE ( 'NONE', #216, 10.00000000000000000 ) ;
#188 = VERTEX_POINT ( 'NONE', #245 ) ;
#189 = ORIENTED_EDGE ( 'NONE', *, *, #260, .F. ) ;
#190 = CC_DESIGN_PERSON_AND_ORGANIZATION_ASSIGNMENT ( #58, #80, ( #166 ) ) ;
#191 = ORIENTED_EDGE ( 'NONE', *, *, #186, .F. ) ;
#192 = AXIS2_PLACEMENT_3D ( 'NONE', #54, #53, #221 ) ;
#193 = DIRECTION ( 'NONE',  ( 0.000000000000000000, -1.000000000000000000, 0.000000000000000000 ) ) ;
#194 = CARTESIAN_POINT ( 'NONE',  ( 0.000000000000000000, 0.000000000000000000, 1208.000000000000000 ) ) ;
#195 = DIRECTION ( 'NONE',  ( 1.000000000000000000, 0.000000000000000000, 0.000000000000000000 ) ) ;
#196 = PRODUCT_DEFINITION_FORMATION_WITH_SPECIFIED_SOURCE ( 'LIBOVOLNÝ', '', #166, .NOT_KNOWN. ) ;
#197 = CARTESIAN_POINT ( 'NONE',  ( 0.000000000000000000, 0.000000000000000000, 1208.000000000000000 ) ) ;
#198 = APPROVAL_DATE_TIME ( #87, #164 ) ;
#199 = DESIGN_CONTEXT ( 'detailed design', #305, 'design' ) ;
#200 = EDGE_CURVE ( 'NONE', #86, #42, #172, .T. ) ;
#201 = ORIENTED_EDGE ( 'NONE', *, *, #134, .T. ) ;
#202 = ORGANIZATION ( 'NEURÈENÝ', 'NEURÈENÝ', '' ) ;
#203 = DIRECTION ( 'NONE',  ( 0.000000000000000000, 0.000000000000000000, 1.000000000000000000 ) ) ;
#204 = COORDINATED_UNIVERSAL_TIME_OFFSET ( 1, 0, .AHEAD. ) ;
#205 = COORDINATED_UNIVERSAL_TIME_OFFSET ( 1, 0, .AHEAD. ) ;
#206 = CIRCLE ( 'NONE', #236, 10.00000000000000000 ) ;
#207 = DIRECTION ( 'NONE',  ( -1.000000000000000000, 0.000000000000000000, 0.000000000000000000 ) ) ;
#208 = CC_DESIGN_DATE_AND_TIME_ASSIGNMENT ( #81, #57, ( #241 ) ) ;
#209 = CARTESIAN_POINT ( 'NONE',  ( 10.00000000000000000, 1.224646799147353256E-15, 1208.000000000000000 ) ) ;
#210 = ORIENTED_EDGE ( 'NONE', *, *, #264, .T. ) ;
#211 = APPROVAL_PERSON_ORGANIZATION ( #248, #287, #222 ) ;
#212 = ORIENTED_EDGE ( 'NONE', *, *, #24, .T. ) ;
#213 = DIRECTION ( 'NONE',  ( 1.000000000000000000, 0.000000000000000000, -0.000000000000000000 ) ) ;
#214 = DIRECTION ( 'NONE',  ( -1.000000000000000000, 0.000000000000000000, 0.000000000000000000 ) ) ;
#215 = AXIS2_PLACEMENT_3D ( 'NONE', #66, #254, #45 ) ;
#216 = AXIS2_PLACEMENT_3D ( 'NONE', #243, #219, #142 ) ;
#217 = DIRECTION ( 'NONE',  ( -0.000000000000000000, -0.000000000000000000, -1.000000000000000000 ) ) ;
#218 = CARTESIAN_POINT ( 'NONE',  ( 13.00000000000000178, 1.592040838891559293E-15, 8.000000000000000000 ) ) ;
#219 = DIRECTION ( 'NONE',  ( 0.000000000000000000, 0.000000000000000000, 1.000000000000000000 ) ) ;
#220 = LOCAL_TIME ( 11, 19, 18.00000000000000000, #148 ) ;
#221 = DIRECTION ( 'NONE',  ( 1.000000000000000000, 0.000000000000000000, 0.000000000000000000 ) ) ;
#222 = APPROVAL_ROLE ( '' ) ;
#223 = DATE_TIME_ROLE ( 'creation_date' ) ;
#224 = ORIENTED_EDGE ( 'NONE', *, *, #183, .T. ) ;
#225 = AXIS2_PLACEMENT_3D ( 'NONE', #101, #288, #75 ) ;
#226 = CALENDAR_DATE ( 2022, 20, 6 ) ;
#227 = ORIENTED_EDGE ( 'NONE', *, *, #20, .F. ) ;
#228 = ORIENTED_EDGE ( 'NONE', *, *, #246, .T. ) ;
#229 = CALENDAR_DATE ( 2022, 20, 6 ) ;
#230 = CIRCLE ( 'NONE', #176, 10.20000000000000107 ) ;
#231 = CARTESIAN_POINT ( 'NONE',  ( 0.000000000000000000, 0.000000000000000000, 8.000000000000000000 ) ) ;
#232 = DIRECTION ( 'NONE',  ( 0.000000000000000000, 0.000000000000000000, 1.000000000000000000 ) ) ;
#233 = ORIENTED_EDGE ( 'NONE', *, *, #106, .F. ) ;
#234 = EDGE_LOOP ( 'NONE', ( #233, #250, #224, #138 ) ) ;
#235 = CIRCLE ( 'NONE', #60, 10.00000000000000000 ) ;
#236 = AXIS2_PLACEMENT_3D ( 'NONE', #194, #292, #289 ) ;
#237 = PLANE ( 'NONE',  #4 ) ;
#238 = EDGE_CURVE ( 'NONE', #43, #86, #206, .T. ) ;
#239 = CARTESIAN_POINT ( 'NONE',  ( 10.20000000000000107, 0.000000000000000000, 8.199999999999985079 ) ) ;
#240 = CYLINDRICAL_SURFACE ( 'NONE', #225, 13.00000000000000178 ) ;
#241 = SECURITY_CLASSIFICATION ( '', '', #270 ) ;
#242 = EDGE_CURVE ( 'NONE', #89, #91, #30, .T. ) ;
#243 = CARTESIAN_POINT ( 'NONE',  ( 0.000000000000000000, 0.000000000000000000, 1208.000000000000000 ) ) ;
#244 = DIRECTION ( 'NONE',  ( -0.000000000000000000, -0.000000000000000000, -1.000000000000000000 ) ) ;
#245 = CARTESIAN_POINT ( 'NONE',  ( 10.20000000000000107, 0.000000000000000000, 7.999999999999992895 ) ) ;
#246 = EDGE_CURVE ( 'NONE', #115, #279, #303, .T. ) ;
#247 = APPROVAL_PERSON_ORGANIZATION ( #33, #164, #108 ) ;
#248 = PERSON_AND_ORGANIZATION ( #16, #202 ) ;
#249 = PERSON_AND_ORGANIZATION_ROLE ( 'creator' ) ;
#250 = ORIENTED_EDGE ( 'NONE', *, *, #200, .T. ) ;
#251 = CARTESIAN_POINT ( 'NONE',  ( 0.000000000000000000, 0.000000000000000000, 0.000000000000000000 ) ) ;
#252 = COORDINATED_UNIVERSAL_TIME_OFFSET ( 1, 0, .AHEAD. ) ;
#253 = PERSON_AND_ORGANIZATION ( #16, #202 ) ;
#254 = DIRECTION ( 'NONE',  ( 0.000000000000000000, 0.000000000000000000, 1.000000000000000000 ) ) ;
#255 = AXIS2_PLACEMENT_3D ( 'NONE', #137, #232, #19 ) ;
#256 = FACE_OUTER_BOUND ( 'NONE', #119, .T. ) ;
#257 = EDGE_LOOP ( 'NONE', ( #96, #135, #129, #165 ) ) ;
#258 = COORDINATED_UNIVERSAL_TIME_OFFSET ( 1, 0, .AHEAD. ) ;
#259 = CARTESIAN_POINT ( 'NONE',  ( -10.20000000000000107, 1.249139735130300365E-15, 8.199999999999985079 ) ) ;
#260 = EDGE_CURVE ( 'NONE', #42, #188, #297, .T. ) ;
#261 = CARTESIAN_POINT ( 'NONE',  ( 10.00000000000000000, 1.224646799147353256E-15, 8.199999999999985079 ) ) ;
#262 = FACE_OUTER_BOUND ( 'NONE', #234, .T. ) ;
#263 = DIRECTION ( 'NONE',  ( 0.000000000000000000, 0.000000000000000000, 1.000000000000000000 ) ) ;
#264 = EDGE_CURVE ( 'NONE', #306, #42, #235, .T. ) ;
#265 = CARTESIAN_POINT ( 'NONE',  ( 13.00000000000000178, 1.592040838891559293E-15, 0.000000000000000000 ) ) ;
#266 = AXIS2_PLACEMENT_3D ( 'NONE', #197, #27, #214 ) ;
#267 = DIRECTION ( 'NONE',  ( 1.000000000000000000, 0.000000000000000000, 0.000000000000000000 ) ) ;
#268 = ADVANCED_FACE ( 'NONE', ( #125, #29 ), #168, .T. ) ;
#269 = FACE_OUTER_BOUND ( 'NONE', #179, .T. ) ;
#270 = SECURITY_CLASSIFICATION_LEVEL ( 'unclassified' ) ;
#271 = CIRCLE ( 'NONE', #175, 0.2000000000000005107 ) ;
#272 = APPROVAL_PERSON_ORGANIZATION ( #128, #52, #140 ) ;
#273 = DIRECTION ( 'NONE',  ( 1.000000000000000000, 0.000000000000000000, 0.000000000000000000 ) ) ;
#274 = ORIENTED_EDGE ( 'NONE', *, *, #238, .T. ) ;
#275 = ADVANCED_FACE ( 'NONE', ( #25 ), #56, .F. ) ;
#276 = EDGE_LOOP ( 'NONE', ( #274, #109 ) ) ;
#277 = AXIS2_PLACEMENT_3D ( 'NONE', #295, #177, #273 ) ;
#278 = PERSON_AND_ORGANIZATION ( #16, #202 ) ;
#279 = VERTEX_POINT ( 'NONE', #74 ) ;
#280 = PRODUCT_DEFINITION ( 'NEZNÁMÝ', '', #196, #199 ) ;
#281 = LINE ( 'NONE', #22, #14 ) ;
#282 = CC_DESIGN_SECURITY_CLASSIFICATION ( #241, ( #196 ) ) ;
#283 = CARTESIAN_POINT ( 'NONE',  ( -10.00000000000000000, 0.000000000000000000, 1208.000000000000000 ) ) ;
#284 = DIRECTION ( 'NONE',  ( 1.224646799147353207E-16, 1.000000000000000000, -0.000000000000000000 ) ) ;
#285 = DIRECTION ( 'NONE',  ( -0.000000000000000000, -0.000000000000000000, -1.000000000000000000 ) ) ;
#286 = DIRECTION ( 'NONE',  ( 0.000000000000000000, 0.000000000000000000, 1.000000000000000000 ) ) ;
#287 = APPROVAL ( #31, 'NEURÈENÝ' ) ;
#288 = DIRECTION ( 'NONE',  ( -0.000000000000000000, -0.000000000000000000, -1.000000000000000000 ) ) ;
#289 = DIRECTION ( 'NONE',  ( 1.000000000000000000, 0.000000000000000000, 0.000000000000000000 ) ) ;
#290 = APPLICATION_CONTEXT ( 'configuration controlled 3d designs of mechanical parts and assemblies' ) ;
#291 = AXIS2_PLACEMENT_3D ( 'NONE', #126, #286, #47 ) ;
#292 = DIRECTION ( 'NONE',  ( 0.000000000000000000, 0.000000000000000000, 1.000000000000000000 ) ) ;
#293 = ADVANCED_FACE ( 'NONE', ( #143 ), #240, .T. ) ;
#294 = CALENDAR_DATE ( 2022, 20, 6 ) ;
#295 = CARTESIAN_POINT ( 'NONE',  ( 0.000000000000000000, 0.000000000000000000, 8.000000000000000000 ) ) ;
#296 = EDGE_LOOP ( 'NONE', ( #21, #13, #301, #98 ) ) ;
#297 = CIRCLE ( 'NONE', #182, 0.2000000000000005107 ) ;
#298 = PERSON_AND_ORGANIZATION ( #16, #202 ) ;
#299 =( NAMED_UNIT ( * ) SI_UNIT ( $, .STERADIAN. ) SOLID_ANGLE_UNIT ( ) );
#300 = EDGE_CURVE ( 'NONE', #91, #89, #147, .T. ) ;
#301 = ORIENTED_EDGE ( 'NONE', *, *, #260, .T. ) ;
#302 = CARTESIAN_POINT ( 'NONE',  ( 13.00000000000000178, 1.592040838891559293E-15, 8.000000000000000000 ) ) ;
#303 = CIRCLE ( 'NONE', #192, 13.00000000000000178 ) ;
#304 = EDGE_LOOP ( 'NONE', ( #153, #212, #184, #189 ) ) ;
#305 = APPLICATION_CONTEXT ( 'configuration controlled 3d designs of mechanical parts and assemblies' ) ;
#306 = VERTEX_POINT ( 'NONE', #85 ) ;
#307 = LINE ( 'NONE', #117, #82 ) ;
ENDSEC;
END-ISO-10303-21;
