ISO-10303-21;
HEADER;
FILE_DESCRIPTION (( 'STEP AP203' ),
    '1' );
FILE_NAME ('1eab.STEP',
    '2022-06-20T10:30:26',
    ( '' ),
    ( '' ),
    'SwSTEP 2.0',
    'SolidWorks 2019',
    '' );
FILE_SCHEMA (( 'CONFIG_CONTROL_DESIGN' ));
ENDSEC;

DATA;
#1 = ORIENTED_EDGE ( 'NONE', *, *, #264, .T. ) ;
#2 = APPROVAL_DATE_TIME ( #174, #218 ) ;
#3 = ORIENTED_EDGE ( 'NONE', *, *, #23, .F. ) ;
#4 = DATE_TIME_ROLE ( 'creation_date' ) ;
#5 = PERSON_AND_ORGANIZATION ( #38, #113 ) ;
#6 = VERTEX_POINT ( 'NONE', #93 ) ;
#7 = DATE_AND_TIME ( #228, #44 ) ;
#8 = ORIENTED_EDGE ( 'NONE', *, *, #88, .F. ) ;
#9 = AXIS2_PLACEMENT_3D ( 'NONE', #10, #106, #211 ) ;
#10 = CARTESIAN_POINT ( 'NONE',  ( 0.000000000000000000, 0.000000000000000000, 1.399999999999998579 ) ) ;
#11 = CC_DESIGN_PERSON_AND_ORGANIZATION_ASSIGNMENT ( #148, #27, ( #120 ) ) ;
#12 = AXIS2_PLACEMENT_3D ( 'NONE', #212, #16, #215 ) ;
#13 = DIRECTION ( 'NONE',  ( -0.000000000000000000, -0.000000000000000000, -1.000000000000000000 ) ) ;
#14 = PRODUCT ( '1eab', '1eab', '', ( #219 ) ) ;
#15 = CARTESIAN_POINT ( 'NONE',  ( 0.6999999999999999556, 0.000000000000000000, 1.399999999999998579 ) ) ;
#16 = DIRECTION ( 'NONE',  ( 0.000000000000000000, 0.000000000000000000, 1.000000000000000000 ) ) ;
#17 = CLOSED_SHELL ( 'NONE', ( #56, #173, #159, #287, #164, #142, #209, #231, #292 ) ) ;
#18 =( LENGTH_UNIT ( ) NAMED_UNIT ( * ) SI_UNIT ( .MILLI., .METRE. ) );
#19 = AXIS2_PLACEMENT_3D ( 'NONE', #91, #20, #45 ) ;
#20 = DIRECTION ( 'NONE',  ( 0.000000000000000000, 0.000000000000000000, 1.000000000000000000 ) ) ;
#21 = APPLICATION_PROTOCOL_DEFINITION ( 'international standard', 'config_control_design', 1994, #58 ) ;
#22 = FACE_OUTER_BOUND ( 'NONE', #81, .T. ) ;
#23 = EDGE_CURVE ( 'NONE', #6, #147, #26, .T. ) ;
#24 = EDGE_LOOP ( 'NONE', ( #1, #182 ) ) ;
#25 = AXIS2_PLACEMENT_3D ( 'NONE', #284, #260, #156 ) ;
#26 = LINE ( 'NONE', #51, #63 ) ;
#27 = PERSON_AND_ORGANIZATION_ROLE ( 'creator' ) ;
#28 = ORIENTED_EDGE ( 'NONE', *, *, #71, .T. ) ;
#29 = COORDINATED_UNIVERSAL_TIME_OFFSET ( 1, 0, .AHEAD. ) ;
#30 = ORIENTED_EDGE ( 'NONE', *, *, #197, .F. ) ;
#31 = ORIENTED_EDGE ( 'NONE', *, *, #213, .T. ) ;
#32 = CARTESIAN_POINT ( 'NONE',  ( -1.250000000000000000, 0.000000000000000000, 0.000000000000000000 ) ) ;
#33 = EDGE_CURVE ( 'NONE', #98, #6, #245, .T. ) ;
#34 = FACE_BOUND ( 'NONE', #24, .T. ) ;
#35 = CIRCLE ( 'NONE', #42, 1.250000000000000000 ) ;
#36 = CYLINDRICAL_SURFACE ( 'NONE', #220, 1.250000000000000000 ) ;
#37 = LINE ( 'NONE', #234, #99 ) ;
#38 = PERSON ( 'NEURÈENÝ', 'NEURÈENÝ', 'NEURÈENÝ', ('NEURÈENÝ'), ('NEURÈENÝ'), ('NEURÈENÝ') ) ;
#39 = APPROVAL_PERSON_ORGANIZATION ( #5, #223, #247 ) ;
#40 = CARTESIAN_POINT ( 'NONE',  ( 0.5000000000000000000, 6.123233995736766036E-17, 101.2000000000000171 ) ) ;
#41 = CARTESIAN_POINT ( 'NONE',  ( 0.5000000000000000000, 6.123233995736766036E-17, 101.2000000000000171 ) ) ;
#42 = AXIS2_PLACEMENT_3D ( 'NONE', #282, #61, #240 ) ;
#43 = CARTESIAN_POINT ( 'NONE',  ( 0.000000000000000000, 0.000000000000000000, 1.199999999999999956 ) ) ;
#44 = LOCAL_TIME ( 12, 30, 26.00000000000000000, #29 ) ;
#45 = DIRECTION ( 'NONE',  ( 1.000000000000000000, 0.000000000000000000, 0.000000000000000000 ) ) ;
#46 = CARTESIAN_POINT ( 'NONE',  ( 0.000000000000000000, 0.000000000000000000, 1.399999999999998579 ) ) ;
#47 = DIRECTION ( 'NONE',  ( -1.000000000000000000, 1.224646799147352714E-16, 0.000000000000000000 ) ) ;
#48 = LOCAL_TIME ( 12, 30, 26.00000000000000000, #205 ) ;
#49 = APPROVAL_DATE_TIME ( #269, #223 ) ;
#50 = APPLICATION_PROTOCOL_DEFINITION ( 'international standard', 'config_control_design', 1994, #62 ) ;
#51 = CARTESIAN_POINT ( 'NONE',  ( -0.5000000000000000000, 0.000000000000000000, 101.2000000000000171 ) ) ;
#52 = VERTEX_POINT ( 'NONE', #160 ) ;
#53 = PERSON_AND_ORGANIZATION ( #38, #113 ) ;
#54 = AXIS2_PLACEMENT_3D ( 'NONE', #87, #165, #190 ) ;
#55 = EDGE_LOOP ( 'NONE', ( #178, #199, #119, #3 ) ) ;
#56 = ADVANCED_FACE ( 'NONE', ( #214 ), #162, .F. ) ;
#57 = ORIENTED_EDGE ( 'NONE', *, *, #102, .T. ) ;
#58 = APPLICATION_CONTEXT ( 'configuration controlled 3d designs of mechanical parts and assemblies' ) ;
#59 = CARTESIAN_POINT ( 'NONE',  ( 1.250000000000000000, 1.530808498934191571E-16, 1.199999999999999956 ) ) ;
#60 = CIRCLE ( 'NONE', #170, 0.1999999999999999833 ) ;
#61 = DIRECTION ( 'NONE',  ( 0.000000000000000000, 0.000000000000000000, 1.000000000000000000 ) ) ;
#62 = APPLICATION_CONTEXT ( 'configuration controlled 3d designs of mechanical parts and assemblies' ) ;
#63 = VECTOR ( 'NONE', #122, 1000.000000000000000 ) ;
#64 = DIRECTION ( 'NONE',  ( 0.000000000000000000, 0.000000000000000000, 1.000000000000000000 ) ) ;
#65 = AXIS2_PLACEMENT_3D ( 'NONE', #259, #13, #237 ) ;
#66 = DIRECTION ( 'NONE',  ( -1.000000000000000000, 0.000000000000000000, 0.000000000000000000 ) ) ;
#67 = CARTESIAN_POINT ( 'NONE',  ( 0.000000000000000000, 0.000000000000000000, 101.2000000000000171 ) ) ;
#68 = CIRCLE ( 'NONE', #77, 0.5000000000000000000 ) ;
#69 = CIRCLE ( 'NONE', #238, 0.5000000000000000000 ) ;
#70 =( NAMED_UNIT ( * ) PLANE_ANGLE_UNIT ( ) SI_UNIT ( $, .RADIAN. ) );
#71 = EDGE_CURVE ( 'NONE', #272, #177, #37, .T. ) ;
#72 = DIRECTION ( 'NONE',  ( 1.000000000000000000, 0.000000000000000000, -0.000000000000000000 ) ) ;
#73 = CC_DESIGN_APPROVAL ( #218, ( #305 ) ) ;
#74 = VERTEX_POINT ( 'NONE', #85 ) ;
#75 = CALENDAR_DATE ( 2022, 20, 6 ) ;
#76 = ORIENTED_EDGE ( 'NONE', *, *, #264, .F. ) ;
#77 = AXIS2_PLACEMENT_3D ( 'NONE', #300, #301, #82 ) ;
#78 = COORDINATED_UNIVERSAL_TIME_OFFSET ( 1, 0, .AHEAD. ) ;
#79 = ORIENTED_EDGE ( 'NONE', *, *, #71, .F. ) ;
#80 = ORIENTED_EDGE ( 'NONE', *, *, #23, .T. ) ;
#81 = EDGE_LOOP ( 'NONE', ( #96, #206 ) ) ;
#82 = DIRECTION ( 'NONE',  ( 1.000000000000000000, 0.000000000000000000, 0.000000000000000000 ) ) ;
#83 = EDGE_CURVE ( 'NONE', #296, #155, #187, .T. ) ;
#84 = FACE_OUTER_BOUND ( 'NONE', #55, .T. ) ;
#85 = CARTESIAN_POINT ( 'NONE',  ( -0.6999999999999999556, 8.572527594031473190E-17, 1.199999999999999289 ) ) ;
#86 = FACE_OUTER_BOUND ( 'NONE', #298, .T. ) ;
#87 = CARTESIAN_POINT ( 'NONE',  ( 0.000000000000000000, 0.000000000000000000, 101.2000000000000171 ) ) ;
#88 = EDGE_CURVE ( 'NONE', #251, #52, #132, .T. ) ;
#89 = CARTESIAN_POINT ( 'NONE',  ( 0.000000000000000000, 0.000000000000000000, 0.000000000000000000 ) ) ;
#90 = TOROIDAL_SURFACE ( 'NONE', #19, 0.6999999999999999556, 0.2000000000000000111 ) ;
#91 = CARTESIAN_POINT ( 'NONE',  ( 0.000000000000000000, 0.000000000000000000, 1.399999999999998579 ) ) ;
#92 = PLANE ( 'NONE',  #166 ) ;
#93 = CARTESIAN_POINT ( 'NONE',  ( -0.5000000000000000000, 0.000000000000000000, 101.2000000000000171 ) ) ;
#94 = CC_DESIGN_PERSON_AND_ORGANIZATION_ASSIGNMENT ( #273, #181, ( #305 ) ) ;
#95 = APPROVAL_STATUS ( 'not_yet_approved' ) ;
#96 = ORIENTED_EDGE ( 'NONE', *, *, #169, .T. ) ;
#97 = DATE_AND_TIME ( #275, #200 ) ;
#98 = VERTEX_POINT ( 'NONE', #40 ) ;
#99 = VECTOR ( 'NONE', #233, 1000.000000000000000 ) ;
#100 = APPROVAL_STATUS ( 'not_yet_approved' ) ;
#101 = ORIENTED_EDGE ( 'NONE', *, *, #243, .F. ) ;
#102 = EDGE_CURVE ( 'NONE', #272, #296, #307, .T. ) ;
#103 = COORDINATED_UNIVERSAL_TIME_OFFSET ( 1, 0, .AHEAD. ) ;
#104 = APPROVAL_PERSON_ORGANIZATION ( #203, #218, #295 ) ;
#105 = ORIENTED_EDGE ( 'NONE', *, *, #193, .F. ) ;
#106 = DIRECTION ( 'NONE',  ( 0.000000000000000000, 0.000000000000000000, 1.000000000000000000 ) ) ;
#107 = DIRECTION ( 'NONE',  ( 0.000000000000000000, -1.000000000000000000, 0.000000000000000000 ) ) ;
#108 = PLANE ( 'NONE',  #12 ) ;
#109 = LOCAL_TIME ( 12, 30, 26.00000000000000000, #154 ) ;
#110 = CARTESIAN_POINT ( 'NONE',  ( 0.000000000000000000, 0.000000000000000000, 1.199999999999999956 ) ) ;
#111 = DIRECTION ( 'NONE',  ( -0.000000000000000000, -0.000000000000000000, -1.000000000000000000 ) ) ;
#112 = DIRECTION ( 'NONE',  ( 1.000000000000000000, 0.000000000000000000, 0.000000000000000000 ) ) ;
#113 = ORGANIZATION ( 'NEURÈENÝ', 'NEURÈENÝ', '' ) ;
#114 = LINE ( 'NONE', #41, #280 ) ;
#115 = CYLINDRICAL_SURFACE ( 'NONE', #135, 1.250000000000000000 ) ;
#116 = DIRECTION ( 'NONE',  ( -0.000000000000000000, -0.000000000000000000, -1.000000000000000000 ) ) ;
#117 = DIRECTION ( 'NONE',  ( -0.000000000000000000, -0.000000000000000000, -1.000000000000000000 ) ) ;
#118 = SHAPE_DEFINITION_REPRESENTATION ( #235, #137 ) ;
#119 = ORIENTED_EDGE ( 'NONE', *, *, #184, .T. ) ;
#120 = PRODUCT_DEFINITION ( 'NEZNÁMÝ', '', #305, #210 ) ;
#121 = VECTOR ( 'NONE', #111, 1000.000000000000000 ) ;
#122 = DIRECTION ( 'NONE',  ( -0.000000000000000000, -0.000000000000000000, -1.000000000000000000 ) ) ;
#123 = MANIFOLD_SOLID_BREP ( 'Zaoblit1', #17 ) ;
#124 = AXIS2_PLACEMENT_3D ( 'NONE', #195, #286, #265 ) ;
#125 = DATE_AND_TIME ( #75, #109 ) ;
#126 = ORIENTED_EDGE ( 'NONE', *, *, #193, .T. ) ;
#127 = PERSON_AND_ORGANIZATION ( #38, #113 ) ;
#128 = EDGE_LOOP ( 'NONE', ( #57, #230 ) ) ;
#129 = UNCERTAINTY_MEASURE_WITH_UNIT (LENGTH_MEASURE( 1.000000000000000082E-05 ), #18, 'distance_accuracy_value', 'NONE');
#130 = CARTESIAN_POINT ( 'NONE',  ( 1.250000000000000000, 1.530808498934191571E-16, 0.000000000000000000 ) ) ;
#131 = FACE_OUTER_BOUND ( 'NONE', #254, .T. ) ;
#132 = CIRCLE ( 'NONE', #138, 0.2000000000000000944 ) ;
#133 = CARTESIAN_POINT ( 'NONE',  ( 0.000000000000000000, 0.000000000000000000, 1.199999999999999956 ) ) ;
#134 = DIRECTION ( 'NONE',  ( 0.000000000000000000, 0.000000000000000000, -1.000000000000000000 ) ) ;
#135 = AXIS2_PLACEMENT_3D ( 'NONE', #43, #116, #143 ) ;
#136 = CARTESIAN_POINT ( 'NONE',  ( 0.000000000000000000, 0.000000000000000000, 101.2000000000000171 ) ) ;
#137 = ADVANCED_BREP_SHAPE_REPRESENTATION ( '1eab', ( #123, #175 ), #299 ) ;
#138 = AXIS2_PLACEMENT_3D ( 'NONE', #15, #107, #134 ) ;
#139 = CARTESIAN_POINT ( 'NONE',  ( 0.000000000000000000, 0.000000000000000000, 0.000000000000000000 ) ) ;
#140 = DIRECTION ( 'NONE',  ( 1.224646799147353207E-16, 1.000000000000000000, -0.000000000000000000 ) ) ;
#141 = AXIS2_PLACEMENT_3D ( 'NONE', #89, #242, #198 ) ;
#142 = ADVANCED_FACE ( 'NONE', ( #131 ), #239, .F. ) ;
#143 = DIRECTION ( 'NONE',  ( -1.000000000000000000, 0.000000000000000000, 0.000000000000000000 ) ) ;
#144 =( NAMED_UNIT ( * ) SI_UNIT ( $, .STERADIAN. ) SOLID_ANGLE_UNIT ( ) );
#145 = CC_DESIGN_APPROVAL ( #179, ( #120 ) ) ;
#146 = PERSON_AND_ORGANIZATION_ROLE ( 'design_supplier' ) ;
#147 = VERTEX_POINT ( 'NONE', #188 ) ;
#148 = PERSON_AND_ORGANIZATION ( #38, #113 ) ;
#149 = ORIENTED_EDGE ( 'NONE', *, *, #221, .F. ) ;
#150 = EDGE_CURVE ( 'NONE', #296, #272, #35, .T. ) ;
#151 = CC_DESIGN_APPROVAL ( #223, ( #252 ) ) ;
#152 = SECURITY_CLASSIFICATION_LEVEL ( 'unclassified' ) ;
#153 = ORIENTED_EDGE ( 'NONE', *, *, #249, .F. ) ;
#154 = COORDINATED_UNIVERSAL_TIME_OFFSET ( 1, 0, .AHEAD. ) ;
#155 = VERTEX_POINT ( 'NONE', #130 ) ;
#156 = DIRECTION ( 'NONE',  ( 1.000000000000000000, 0.000000000000000000, -0.000000000000000000 ) ) ;
#157 = APPROVAL_PERSON_ORGANIZATION ( #127, #179, #176 ) ;
#158 = DIRECTION ( 'NONE',  ( 1.000000000000000000, 0.000000000000000000, 0.000000000000000000 ) ) ;
#159 = ADVANCED_FACE ( 'NONE', ( #86 ), #36, .T. ) ;
#160 = CARTESIAN_POINT ( 'NONE',  ( 0.6999999999999999556, 0.000000000000000000, 1.199999999999999289 ) ) ;
#161 = CC_DESIGN_PERSON_AND_ORGANIZATION_ASSIGNMENT ( #201, #253, ( #252 ) ) ;
#162 = TOROIDAL_SURFACE ( 'NONE', #278, 0.6999999999999999556, 0.2000000000000000111 ) ;
#163 = DIRECTION ( 'NONE',  ( 1.000000000000000000, 0.000000000000000000, 0.000000000000000000 ) ) ;
#164 = ADVANCED_FACE ( 'NONE', ( #34, #303 ), #108, .T. ) ;
#165 = DIRECTION ( 'NONE',  ( -0.000000000000000000, -0.000000000000000000, -1.000000000000000000 ) ) ;
#166 = AXIS2_PLACEMENT_3D ( 'NONE', #67, #306, #72 ) ;
#167 = CARTESIAN_POINT ( 'NONE',  ( 0.5000000000000000000, 6.123233995736766036E-17, 1.399999999999998579 ) ) ;
#168 = DIRECTION ( 'NONE',  ( 1.000000000000000000, 0.000000000000000000, 0.000000000000000000 ) ) ;
#169 = EDGE_CURVE ( 'NONE', #6, #98, #68, .T. ) ;
#170 = AXIS2_PLACEMENT_3D ( 'NONE', #285, #140, #47 ) ;
#171 = DIRECTION ( 'NONE',  ( -0.000000000000000000, -0.000000000000000000, -1.000000000000000000 ) ) ;
#172 = DIRECTION ( 'NONE',  ( 0.000000000000000000, 0.000000000000000000, 1.000000000000000000 ) ) ;
#173 = ADVANCED_FACE ( 'NONE', ( #84 ), #283, .T. ) ;
#174 = DATE_AND_TIME ( #180, #186 ) ;
#175 = AXIS2_PLACEMENT_3D ( 'NONE', #139, #291, #112 ) ;
#176 = APPROVAL_ROLE ( '' ) ;
#177 = VERTEX_POINT ( 'NONE', #32 ) ;
#178 = ORIENTED_EDGE ( 'NONE', *, *, #33, .F. ) ;
#179 = APPROVAL ( #293, 'NEURÈENÝ' ) ;
#180 = CALENDAR_DATE ( 2022, 20, 6 ) ;
#181 = PERSON_AND_ORGANIZATION_ROLE ( 'creator' ) ;
#182 = ORIENTED_EDGE ( 'NONE', *, *, #197, .T. ) ;
#183 = EDGE_LOOP ( 'NONE', ( #101, #31, #76, #8 ) ) ;
#184 = EDGE_CURVE ( 'NONE', #251, #147, #288, .T. ) ;
#185 = CARTESIAN_POINT ( 'NONE',  ( 0.000000000000000000, 0.000000000000000000, 0.000000000000000000 ) ) ;
#186 = LOCAL_TIME ( 12, 30, 26.00000000000000000, #78 ) ;
#187 = LINE ( 'NONE', #59, #121 ) ;
#188 = CARTESIAN_POINT ( 'NONE',  ( -0.5000000000000000000, 0.000000000000000000, 1.399999999999998579 ) ) ;
#189 = CARTESIAN_POINT ( 'NONE',  ( 0.000000000000000000, 0.000000000000000000, 1.399999999999998579 ) ) ;
#190 = DIRECTION ( 'NONE',  ( -1.000000000000000000, 0.000000000000000000, 0.000000000000000000 ) ) ;
#191 = CIRCLE ( 'NONE', #141, 1.250000000000000000 ) ;
#192 = FACE_OUTER_BOUND ( 'NONE', #294, .T. ) ;
#193 = EDGE_CURVE ( 'NONE', #177, #155, #222, .T. ) ;
#194 = FACE_OUTER_BOUND ( 'NONE', #229, .T. ) ;
#195 = CARTESIAN_POINT ( 'NONE',  ( 0.000000000000000000, 0.000000000000000000, 1.199999999999999956 ) ) ;
#196 = PRODUCT_RELATED_PRODUCT_CATEGORY ( 'detail', '', ( #14 ) ) ;
#197 = EDGE_CURVE ( 'NONE', #74, #52, #262, .T. ) ;
#198 = DIRECTION ( 'NONE',  ( 1.000000000000000000, 0.000000000000000000, 0.000000000000000000 ) ) ;
#199 = ORIENTED_EDGE ( 'NONE', *, *, #221, .T. ) ;
#200 = LOCAL_TIME ( 12, 30, 26.00000000000000000, #103 ) ;
#201 = PERSON_AND_ORGANIZATION ( #38, #113 ) ;
#202 = ORIENTED_EDGE ( 'NONE', *, *, #83, .T. ) ;
#203 = PERSON_AND_ORGANIZATION ( #38, #113 ) ;
#204 = ORIENTED_EDGE ( 'NONE', *, *, #243, .T. ) ;
#205 = COORDINATED_UNIVERSAL_TIME_OFFSET ( 1, 0, .AHEAD. ) ;
#206 = ORIENTED_EDGE ( 'NONE', *, *, #33, .T. ) ;
#207 = AXIS2_PLACEMENT_3D ( 'NONE', #185, #279, #158 ) ;
#208 = ORIENTED_EDGE ( 'NONE', *, *, #169, .F. ) ;
#209 = ADVANCED_FACE ( 'NONE', ( #192 ), #217, .T. ) ;
#210 = DESIGN_CONTEXT ( 'detailed design', #62, 'design' ) ;
#211 = DIRECTION ( 'NONE',  ( 1.000000000000000000, 0.000000000000000000, 0.000000000000000000 ) ) ;
#212 = CARTESIAN_POINT ( 'NONE',  ( 0.000000000000000000, 0.000000000000000000, 1.199999999999999956 ) ) ;
#213 = EDGE_CURVE ( 'NONE', #147, #74, #60, .T. ) ;
#214 = FACE_OUTER_BOUND ( 'NONE', #183, .T. ) ;
#215 = DIRECTION ( 'NONE',  ( 1.000000000000000000, 0.000000000000000000, -0.000000000000000000 ) ) ;
#216 = DIRECTION ( 'NONE',  ( -0.000000000000000000, -0.000000000000000000, -1.000000000000000000 ) ) ;
#217 = CYLINDRICAL_SURFACE ( 'NONE', #290, 0.5000000000000000000 ) ;
#218 = APPROVAL ( #95, 'NEURÈENÝ' ) ;
#219 = MECHANICAL_CONTEXT ( 'NONE', #58, 'mechanical' ) ;
#220 = AXIS2_PLACEMENT_3D ( 'NONE', #133, #216, #263 ) ;
#221 = EDGE_CURVE ( 'NONE', #98, #251, #114, .T. ) ;
#222 = CIRCLE ( 'NONE', #207, 1.250000000000000000 ) ;
#223 = APPROVAL ( #100, 'NEURÈENÝ' ) ;
#224 = ORIENTED_EDGE ( 'NONE', *, *, #88, .T. ) ;
#225 = ORIENTED_EDGE ( 'NONE', *, *, #249, .T. ) ;
#226 = PERSON_AND_ORGANIZATION_ROLE ( 'design_owner' ) ;
#227 = ORIENTED_EDGE ( 'NONE', *, *, #102, .F. ) ;
#228 = CALENDAR_DATE ( 2022, 20, 6 ) ;
#229 = EDGE_LOOP ( 'NONE', ( #277, #227, #28, #126 ) ) ;
#230 = ORIENTED_EDGE ( 'NONE', *, *, #150, .T. ) ;
#231 = ADVANCED_FACE ( 'NONE', ( #22 ), #92, .T. ) ;
#232 = CC_DESIGN_SECURITY_CLASSIFICATION ( #252, ( #305 ) ) ;
#233 = DIRECTION ( 'NONE',  ( -0.000000000000000000, -0.000000000000000000, -1.000000000000000000 ) ) ;
#234 = CARTESIAN_POINT ( 'NONE',  ( -1.250000000000000000, 0.000000000000000000, 1.199999999999999956 ) ) ;
#235 = PRODUCT_DEFINITION_SHAPE ( 'NONE', 'NONE',  #120 ) ;
#236 = CC_DESIGN_PERSON_AND_ORGANIZATION_ASSIGNMENT ( #246, #226, ( #14 ) ) ;
#237 = DIRECTION ( 'NONE',  ( 1.000000000000000000, 0.000000000000000000, 0.000000000000000000 ) ) ;
#238 = AXIS2_PLACEMENT_3D ( 'NONE', #46, #172, #168 ) ;
#239 = PLANE ( 'NONE',  #25 ) ;
#240 = DIRECTION ( 'NONE',  ( 1.000000000000000000, 0.000000000000000000, 0.000000000000000000 ) ) ;
#241 = AXIS2_PLACEMENT_3D ( 'NONE', #136, #64, #163 ) ;
#242 = DIRECTION ( 'NONE',  ( 0.000000000000000000, 0.000000000000000000, 1.000000000000000000 ) ) ;
#243 = EDGE_CURVE ( 'NONE', #147, #251, #69, .T. ) ;
#244 = CARTESIAN_POINT ( 'NONE',  ( 1.250000000000000000, 1.530808498934191571E-16, 1.199999999999999956 ) ) ;
#245 = CIRCLE ( 'NONE', #241, 0.5000000000000000000 ) ;
#246 = PERSON_AND_ORGANIZATION ( #38, #113 ) ;
#247 = APPROVAL_ROLE ( '' ) ;
#248 = ORIENTED_EDGE ( 'NONE', *, *, #150, .F. ) ;
#249 = EDGE_CURVE ( 'NONE', #155, #177, #191, .T. ) ;
#250 = APPROVAL_DATE_TIME ( #97, #179 ) ;
#251 = VERTEX_POINT ( 'NONE', #167 ) ;
#252 = SECURITY_CLASSIFICATION ( '', '', #152 ) ;
#253 = PERSON_AND_ORGANIZATION_ROLE ( 'classification_officer' ) ;
#254 = EDGE_LOOP ( 'NONE', ( #105, #153 ) ) ;
#255 = ORIENTED_EDGE ( 'NONE', *, *, #213, .F. ) ;
#256 = CC_DESIGN_PERSON_AND_ORGANIZATION_ASSIGNMENT ( #53, #146, ( #305 ) ) ;
#257 = DIRECTION ( 'NONE',  ( 0.000000000000000000, 0.000000000000000000, 1.000000000000000000 ) ) ;
#258 = CIRCLE ( 'NONE', #124, 0.6999999999999999556 ) ;
#259 = CARTESIAN_POINT ( 'NONE',  ( 0.000000000000000000, 0.000000000000000000, 1.199999999999999956 ) ) ;
#260 = DIRECTION ( 'NONE',  ( 0.000000000000000000, 0.000000000000000000, 1.000000000000000000 ) ) ;
#261 = DIRECTION ( 'NONE',  ( 1.000000000000000000, 0.000000000000000000, 0.000000000000000000 ) ) ;
#262 = CIRCLE ( 'NONE', #65, 0.6999999999999999556 ) ;
#263 = DIRECTION ( 'NONE',  ( -1.000000000000000000, 0.000000000000000000, 0.000000000000000000 ) ) ;
#264 = EDGE_CURVE ( 'NONE', #52, #74, #258, .T. ) ;
#265 = DIRECTION ( 'NONE',  ( 1.000000000000000000, 0.000000000000000000, 0.000000000000000000 ) ) ;
#266 = CC_DESIGN_DATE_AND_TIME_ASSIGNMENT ( #7, #270, ( #252 ) ) ;
#267 = FACE_OUTER_BOUND ( 'NONE', #276, .T. ) ;
#268 = CARTESIAN_POINT ( 'NONE',  ( 0.000000000000000000, 0.000000000000000000, 101.2000000000000171 ) ) ;
#269 = DATE_AND_TIME ( #297, #48 ) ;
#270 = DATE_TIME_ROLE ( 'classification_date' ) ;
#271 = CC_DESIGN_DATE_AND_TIME_ASSIGNMENT ( #125, #4, ( #120 ) ) ;
#272 = VERTEX_POINT ( 'NONE', #289 ) ;
#273 = PERSON_AND_ORGANIZATION ( #38, #113 ) ;
#274 = ORIENTED_EDGE ( 'NONE', *, *, #184, .F. ) ;
#275 = CALENDAR_DATE ( 2022, 20, 6 ) ;
#276 = EDGE_LOOP ( 'NONE', ( #255, #274, #224, #30 ) ) ;
#277 = ORIENTED_EDGE ( 'NONE', *, *, #83, .F. ) ;
#278 = AXIS2_PLACEMENT_3D ( 'NONE', #189, #257, #261 ) ;
#279 = DIRECTION ( 'NONE',  ( 0.000000000000000000, 0.000000000000000000, 1.000000000000000000 ) ) ;
#280 = VECTOR ( 'NONE', #117, 1000.000000000000000 ) ;
#281 = DIRECTION ( 'NONE',  ( 0.000000000000000000, 0.000000000000000000, 1.000000000000000000 ) ) ;
#282 = CARTESIAN_POINT ( 'NONE',  ( 0.000000000000000000, 0.000000000000000000, 1.199999999999999956 ) ) ;
#283 = CYLINDRICAL_SURFACE ( 'NONE', #54, 0.5000000000000000000 ) ;
#284 = CARTESIAN_POINT ( 'NONE',  ( 0.000000000000000000, 0.000000000000000000, 0.000000000000000000 ) ) ;
#285 = CARTESIAN_POINT ( 'NONE',  ( -0.6999999999999999556, 8.572527594031471957E-17, 1.399999999999998579 ) ) ;
#286 = DIRECTION ( 'NONE',  ( -0.000000000000000000, -0.000000000000000000, -1.000000000000000000 ) ) ;
#287 = ADVANCED_FACE ( 'NONE', ( #194 ), #115, .T. ) ;
#288 = CIRCLE ( 'NONE', #9, 0.5000000000000000000 ) ;
#289 = CARTESIAN_POINT ( 'NONE',  ( -1.250000000000000000, 0.000000000000000000, 1.199999999999999956 ) ) ;
#290 = AXIS2_PLACEMENT_3D ( 'NONE', #268, #171, #66 ) ;
#291 = DIRECTION ( 'NONE',  ( 0.000000000000000000, 0.000000000000000000, 1.000000000000000000 ) ) ;
#292 = ADVANCED_FACE ( 'NONE', ( #267 ), #90, .F. ) ;
#293 = APPROVAL_STATUS ( 'not_yet_approved' ) ;
#294 = EDGE_LOOP ( 'NONE', ( #149, #208, #80, #204 ) ) ;
#295 = APPROVAL_ROLE ( '' ) ;
#296 = VERTEX_POINT ( 'NONE', #244 ) ;
#297 = CALENDAR_DATE ( 2022, 20, 6 ) ;
#298 = EDGE_LOOP ( 'NONE', ( #248, #202, #225, #79 ) ) ;
#299 =( GEOMETRIC_REPRESENTATION_CONTEXT ( 3 ) GLOBAL_UNCERTAINTY_ASSIGNED_CONTEXT ( ( #129 ) ) GLOBAL_UNIT_ASSIGNED_CONTEXT ( ( #18, #70, #144 ) ) REPRESENTATION_CONTEXT ( 'NONE', 'WORKASPACE' ) );
#300 = CARTESIAN_POINT ( 'NONE',  ( 0.000000000000000000, 0.000000000000000000, 101.2000000000000171 ) ) ;
#301 = DIRECTION ( 'NONE',  ( 0.000000000000000000, 0.000000000000000000, 1.000000000000000000 ) ) ;
#302 = DIRECTION ( 'NONE',  ( 1.000000000000000000, 0.000000000000000000, 0.000000000000000000 ) ) ;
#303 = FACE_OUTER_BOUND ( 'NONE', #128, .T. ) ;
#304 = AXIS2_PLACEMENT_3D ( 'NONE', #110, #281, #302 ) ;
#305 = PRODUCT_DEFINITION_FORMATION_WITH_SPECIFIED_SOURCE ( 'LIBOVOLNÝ', '', #14, .NOT_KNOWN. ) ;
#306 = DIRECTION ( 'NONE',  ( 0.000000000000000000, 0.000000000000000000, 1.000000000000000000 ) ) ;
#307 = CIRCLE ( 'NONE', #304, 1.250000000000000000 ) ;
ENDSEC;
END-ISO-10303-21;
