ISO-10303-21;
HEADER;
FILE_DESCRIPTION (( 'STEP AP203' ),
    '1' );
FILE_NAME ('d022.STEP',
    '2022-06-20T09:41:12',
    ( '' ),
    ( '' ),
    'SwSTEP 2.0',
    'SolidWorks 2019',
    '' );
FILE_SCHEMA (( 'CONFIG_CONTROL_DESIGN' ));
ENDSEC;

DATA;
#1 = DIRECTION ( 'NONE',  ( 1.000000000000000000, 0.000000000000000000, 0.000000000000000000 ) ) ;
#2 = CLOSED_SHELL ( 'NONE', ( #62, #294, #216, #181, #238, #265, #187, #137, #159 ) ) ;
#3 = DIRECTION ( 'NONE',  ( -1.000000000000000000, 0.000000000000000000, 0.000000000000000000 ) ) ;
#4 = EDGE_CURVE ( 'NONE', #41, #252, #75, .T. ) ;
#5 = AXIS2_PLACEMENT_3D ( 'NONE', #78, #81, #6 ) ;
#6 = DIRECTION ( 'NONE',  ( 1.000000000000000000, 0.000000000000000000, 0.000000000000000000 ) ) ;
#7 =( LENGTH_UNIT ( ) NAMED_UNIT ( * ) SI_UNIT ( .MILLI., .METRE. ) );
#8 = DATE_AND_TIME ( #64, #261 ) ;
#9 = AXIS2_PLACEMENT_3D ( 'NONE', #269, #57, #3 ) ;
#10 = PERSON_AND_ORGANIZATION_ROLE ( 'design_supplier' ) ;
#11 = APPROVAL_DATE_TIME ( #232, #124 ) ;
#12 = ORIENTED_EDGE ( 'NONE', *, *, #230, .T. ) ;
#13 = APPROVAL_DATE_TIME ( #108, #254 ) ;
#14 = ORIENTED_EDGE ( 'NONE', *, *, #241, .F. ) ;
#15 = CIRCLE ( 'NONE', #194, 8.000000000000000000 ) ;
#16 = LINE ( 'NONE', #235, #111 ) ;
#17 = EDGE_CURVE ( 'NONE', #66, #297, #16, .T. ) ;
#18 = ORIENTED_EDGE ( 'NONE', *, *, #241, .T. ) ;
#19 = CIRCLE ( 'NONE', #222, 8.000000000000000000 ) ;
#20 = CARTESIAN_POINT ( 'NONE',  ( 5.200000000000001066, 0.000000000000000000, 5.200000000000009948 ) ) ;
#21 = VERTEX_POINT ( 'NONE', #143 ) ;
#22 = FACE_OUTER_BOUND ( 'NONE', #193, .T. ) ;
#23 = CARTESIAN_POINT ( 'NONE',  ( 0.000000000000000000, 0.000000000000000000, 5.000000000000000000 ) ) ;
#24 = CIRCLE ( 'NONE', #167, 5.000000000000000888 ) ;
#25 = FACE_OUTER_BOUND ( 'NONE', #65, .T. ) ;
#26 = LINE ( 'NONE', #199, #213 ) ;
#27 = EDGE_CURVE ( 'NONE', #297, #35, #15, .T. ) ;
#28 = CARTESIAN_POINT ( 'NONE',  ( -8.000000000000000000, 0.000000000000000000, 0.000000000000000000 ) ) ;
#29 = AXIS2_PLACEMENT_3D ( 'NONE', #152, #83, #39 ) ;
#30 = DIRECTION ( 'NONE',  ( -1.000000000000000000, 0.000000000000000000, 0.000000000000000000 ) ) ;
#31 = PERSON_AND_ORGANIZATION ( #80, #92 ) ;
#32 = ORIENTED_EDGE ( 'NONE', *, *, #206, .T. ) ;
#33 = AXIS2_PLACEMENT_3D ( 'NONE', #302, #286, #215 ) ;
#34 = AXIS2_PLACEMENT_3D ( 'NONE', #82, #218, #1 ) ;
#35 = VERTEX_POINT ( 'NONE', #162 ) ;
#36 = DATE_AND_TIME ( #63, #133 ) ;
#37 = APPROVAL ( #255, 'NEURÈENÝ' ) ;
#38 = ORIENTED_EDGE ( 'NONE', *, *, #77, .F. ) ;
#39 = DIRECTION ( 'NONE',  ( 1.000000000000000000, 0.000000000000000000, 0.000000000000000000 ) ) ;
#40 = EDGE_LOOP ( 'NONE', ( #299, #87, #202, #214 ) ) ;
#41 = VERTEX_POINT ( 'NONE', #69 ) ;
#42 = PRODUCT ( 'd022', 'd022', '', ( #227 ) ) ;
#43 = CC_DESIGN_DATE_AND_TIME_ASSIGNMENT ( #36, #257, ( #234 ) ) ;
#44 = AXIS2_PLACEMENT_3D ( 'NONE', #112, #262, #117 ) ;
#45 = DIRECTION ( 'NONE',  ( -0.000000000000000000, -0.000000000000000000, -1.000000000000000000 ) ) ;
#46 = CARTESIAN_POINT ( 'NONE',  ( -5.200000000000001066, 6.368163355566237368E-16, 5.000000000000005329 ) ) ;
#47 = CARTESIAN_POINT ( 'NONE',  ( 0.000000000000000000, 0.000000000000000000, 255.0000000000000000 ) ) ;
#48 = DIRECTION ( 'NONE',  ( -0.000000000000000000, -0.000000000000000000, -1.000000000000000000 ) ) ;
#49 = DIRECTION ( 'NONE',  ( 1.000000000000000000, 0.000000000000000000, 0.000000000000000000 ) ) ;
#50 = FACE_OUTER_BOUND ( 'NONE', #109, .T. ) ;
#51 = MANIFOLD_SOLID_BREP ( 'Zaoblit1', #2 ) ;
#52 = CC_DESIGN_SECURITY_CLASSIFICATION ( #234, ( #105 ) ) ;
#53 = EDGE_CURVE ( 'NONE', #71, #66, #177, .T. ) ;
#54 = CARTESIAN_POINT ( 'NONE',  ( 0.000000000000000000, 0.000000000000000000, 0.000000000000000000 ) ) ;
#55 = DIRECTION ( 'NONE',  ( -0.000000000000000000, -0.000000000000000000, -1.000000000000000000 ) ) ;
#56 = AXIS2_PLACEMENT_3D ( 'NONE', #121, #76, #30 ) ;
#57 = DIRECTION ( 'NONE',  ( -0.000000000000000000, -0.000000000000000000, -1.000000000000000000 ) ) ;
#58 = PERSON_AND_ORGANIZATION_ROLE ( 'design_owner' ) ;
#59 = ORIENTED_EDGE ( 'NONE', *, *, #116, .F. ) ;
#60 = PERSON_AND_ORGANIZATION ( #80, #92 ) ;
#61 = EDGE_LOOP ( 'NONE', ( #38, #231, #94, #130 ) ) ;
#62 = ADVANCED_FACE ( 'NONE', ( #22 ), #260, .F. ) ;
#63 = CALENDAR_DATE ( 2022, 20, 6 ) ;
#64 = CALENDAR_DATE ( 2022, 20, 6 ) ;
#65 = EDGE_LOOP ( 'NONE', ( #142, #14 ) ) ;
#66 = VERTEX_POINT ( 'NONE', #74 ) ;
#67 = TOROIDAL_SURFACE ( 'NONE', #240, 5.200000000000001066, 0.2000000000000000111 ) ;
#68 = CIRCLE ( 'NONE', #248, 5.000000000000000888 ) ;
#69 = CARTESIAN_POINT ( 'NONE',  ( 5.000000000000000888, 6.123233995736767268E-16, 255.0000000000000000 ) ) ;
#70 = DIRECTION ( 'NONE',  ( -0.000000000000000000, -0.000000000000000000, -1.000000000000000000 ) ) ;
#71 = VERTEX_POINT ( 'NONE', #118 ) ;
#72 = PRODUCT_RELATED_PRODUCT_CATEGORY ( 'detail', '', ( #42 ) ) ;
#73 = DIRECTION ( 'NONE',  ( 0.000000000000000000, 0.000000000000000000, 1.000000000000000000 ) ) ;
#74 = CARTESIAN_POINT ( 'NONE',  ( -8.000000000000000000, 0.000000000000000000, 5.000000000000000000 ) ) ;
#75 = CIRCLE ( 'NONE', #249, 5.000000000000000888 ) ;
#76 = DIRECTION ( 'NONE',  ( -0.000000000000000000, -0.000000000000000000, -1.000000000000000000 ) ) ;
#77 = EDGE_CURVE ( 'NONE', #278, #134, #253, .T. ) ;
#78 = CARTESIAN_POINT ( 'NONE',  ( 0.000000000000000000, 0.000000000000000000, 0.000000000000000000 ) ) ;
#79 = FACE_OUTER_BOUND ( 'NONE', #104, .T. ) ;
#80 = PERSON ( 'NEURÈENÝ', 'NEURÈENÝ', 'NEURÈENÝ', ('NEURÈENÝ'), ('NEURÈENÝ'), ('NEURÈENÝ') ) ;
#81 = DIRECTION ( 'NONE',  ( 0.000000000000000000, 0.000000000000000000, 1.000000000000000000 ) ) ;
#82 = CARTESIAN_POINT ( 'NONE',  ( 0.000000000000000000, 0.000000000000000000, 5.200000000000009948 ) ) ;
#83 = DIRECTION ( 'NONE',  ( 0.000000000000000000, 0.000000000000000000, 1.000000000000000000 ) ) ;
#84 = COORDINATED_UNIVERSAL_TIME_OFFSET ( 1, 0, .AHEAD. ) ;
#85 = CC_DESIGN_PERSON_AND_ORGANIZATION_ASSIGNMENT ( #31, #10, ( #105 ) ) ;
#86 = COORDINATED_UNIVERSAL_TIME_OFFSET ( 1, 0, .AHEAD. ) ;
#87 = ORIENTED_EDGE ( 'NONE', *, *, #230, .F. ) ;
#88 = CC_DESIGN_APPROVAL ( #124, ( #234 ) ) ;
#89 = CALENDAR_DATE ( 2022, 20, 6 ) ;
#90 = ORIENTED_EDGE ( 'NONE', *, *, #197, .T. ) ;
#91 = ORIENTED_EDGE ( 'NONE', *, *, #27, .T. ) ;
#92 = ORGANIZATION ( 'NEURÈENÝ', 'NEURÈENÝ', '' ) ;
#93 = CARTESIAN_POINT ( 'NONE',  ( 0.000000000000000000, 0.000000000000000000, 5.000000000000000000 ) ) ;
#94 = ORIENTED_EDGE ( 'NONE', *, *, #116, .T. ) ;
#95 = EDGE_CURVE ( 'NONE', #134, #21, #288, .T. ) ;
#96 = FACE_OUTER_BOUND ( 'NONE', #277, .T. ) ;
#97 = FACE_OUTER_BOUND ( 'NONE', #40, .T. ) ;
#98 = CC_DESIGN_PERSON_AND_ORGANIZATION_ASSIGNMENT ( #301, #178, ( #148 ) ) ;
#99 = FACE_OUTER_BOUND ( 'NONE', #275, .T. ) ;
#100 = CARTESIAN_POINT ( 'NONE',  ( -5.000000000000000888, 0.000000000000000000, 255.0000000000000000 ) ) ;
#101 = DIRECTION ( 'NONE',  ( 1.000000000000000000, 0.000000000000000000, 0.000000000000000000 ) ) ;
#102 = CYLINDRICAL_SURFACE ( 'NONE', #9, 8.000000000000000000 ) ;
#103 = PERSON_AND_ORGANIZATION ( #80, #92 ) ;
#104 = EDGE_LOOP ( 'NONE', ( #295, #132, #90, #183 ) ) ;
#105 = PRODUCT_DEFINITION_FORMATION_WITH_SPECIFIED_SOURCE ( 'LIBOVOLNÝ', '', #42, .NOT_KNOWN. ) ;
#106 = PERSON_AND_ORGANIZATION ( #80, #92 ) ;
#107 = EDGE_CURVE ( 'NONE', #66, #71, #19, .T. ) ;
#108 = DATE_AND_TIME ( #89, #151 ) ;
#109 = EDGE_LOOP ( 'NONE', ( #110, #135, #157, #91 ) ) ;
#110 = ORIENTED_EDGE ( 'NONE', *, *, #273, .F. ) ;
#111 = VECTOR ( 'NONE', #48, 1000.000000000000000 ) ;
#112 = CARTESIAN_POINT ( 'NONE',  ( 0.000000000000000000, 0.000000000000000000, 5.000000000000000000 ) ) ;
#113 = DESIGN_CONTEXT ( 'detailed design', #263, 'design' ) ;
#114 = CARTESIAN_POINT ( 'NONE',  ( 0.000000000000000000, 0.000000000000000000, 0.000000000000000000 ) ) ;
#115 = DIRECTION ( 'NONE',  ( 1.000000000000000000, 0.000000000000000000, 0.000000000000000000 ) ) ;
#116 = EDGE_CURVE ( 'NONE', #128, #21, #166, .T. ) ;
#117 = DIRECTION ( 'NONE',  ( 1.000000000000000000, 0.000000000000000000, 0.000000000000000000 ) ) ;
#118 = CARTESIAN_POINT ( 'NONE',  ( 8.000000000000000000, 9.797174393178825657E-16, 5.000000000000000000 ) ) ;
#119 = CARTESIAN_POINT ( 'NONE',  ( 5.000000000000000888, 6.123233995736767268E-16, 255.0000000000000000 ) ) ;
#120 = AXIS2_PLACEMENT_3D ( 'NONE', #174, #55, #147 ) ;
#121 = CARTESIAN_POINT ( 'NONE',  ( 0.000000000000000000, 0.000000000000000000, 255.0000000000000000 ) ) ;
#122 = DIRECTION ( 'NONE',  ( -0.000000000000000000, -0.000000000000000000, -1.000000000000000000 ) ) ;
#123 = CARTESIAN_POINT ( 'NONE',  ( 0.000000000000000000, 0.000000000000000000, 5.000000000000000000 ) ) ;
#124 = APPROVAL ( #205, 'NEURÈENÝ' ) ;
#125 = DATE_TIME_ROLE ( 'creation_date' ) ;
#126 = EDGE_CURVE ( 'NONE', #252, #278, #305, .T. ) ;
#127 = CALENDAR_DATE ( 2022, 20, 6 ) ;
#128 = VERTEX_POINT ( 'NONE', #189 ) ;
#129 = CALENDAR_DATE ( 2022, 20, 6 ) ;
#130 = ORIENTED_EDGE ( 'NONE', *, *, #95, .F. ) ;
#131 = APPLICATION_PROTOCOL_DEFINITION ( 'international standard', 'config_control_design', 1994, #226 ) ;
#132 = ORIENTED_EDGE ( 'NONE', *, *, #173, .T. ) ;
#133 = LOCAL_TIME ( 11, 41, 12.00000000000000000, #233 ) ;
#134 = VERTEX_POINT ( 'NONE', #46 ) ;
#135 = ORIENTED_EDGE ( 'NONE', *, *, #107, .F. ) ;
#136 = PRODUCT_DEFINITION_SHAPE ( 'NONE', 'NONE',  #148 ) ;
#137 = ADVANCED_FACE ( 'NONE', ( #96 ), #266, .T. ) ;
#138 = ORIENTED_EDGE ( 'NONE', *, *, #53, .T. ) ;
#139 = AXIS2_PLACEMENT_3D ( 'NONE', #190, #281, #212 ) ;
#140 = CIRCLE ( 'NONE', #180, 5.200000000000001066 ) ;
#141 = DIRECTION ( 'NONE',  ( 0.000000000000000000, 0.000000000000000000, 1.000000000000000000 ) ) ;
#142 = ORIENTED_EDGE ( 'NONE', *, *, #27, .F. ) ;
#143 = CARTESIAN_POINT ( 'NONE',  ( 5.200000000000001066, 0.000000000000000000, 5.000000000000005329 ) ) ;
#144 = FACE_BOUND ( 'NONE', #161, .T. ) ;
#145 = AXIS2_PLACEMENT_3D ( 'NONE', #123, #225, #150 ) ;
#146 = DIRECTION ( 'NONE',  ( 0.000000000000000000, 0.000000000000000000, 1.000000000000000000 ) ) ;
#147 = DIRECTION ( 'NONE',  ( -1.000000000000000000, 0.000000000000000000, 0.000000000000000000 ) ) ;
#148 = PRODUCT_DEFINITION ( 'NEZNÁMÝ', '', #105, #113 ) ;
#149 = AXIS2_PLACEMENT_3D ( 'NONE', #47, #141, #211 ) ;
#150 = DIRECTION ( 'NONE',  ( -1.000000000000000000, 0.000000000000000000, 0.000000000000000000 ) ) ;
#151 = LOCAL_TIME ( 11, 41, 12.00000000000000000, #153 ) ;
#152 = CARTESIAN_POINT ( 'NONE',  ( 0.000000000000000000, 0.000000000000000000, 0.000000000000000000 ) ) ;
#153 = COORDINATED_UNIVERSAL_TIME_OFFSET ( 1, 0, .AHEAD. ) ;
#154 = ORIENTED_EDGE ( 'NONE', *, *, #17, .F. ) ;
#155 = ORIENTED_EDGE ( 'NONE', *, *, #206, .F. ) ;
#156 = CC_DESIGN_APPROVAL ( #37, ( #148 ) ) ;
#157 = ORIENTED_EDGE ( 'NONE', *, *, #17, .T. ) ;
#158 = PERSON_AND_ORGANIZATION_ROLE ( 'classification_officer' ) ;
#159 = ADVANCED_FACE ( 'NONE', ( #237 ), #67, .F. ) ;
#160 = AXIS2_PLACEMENT_3D ( 'NONE', #304, #45, #169 ) ;
#161 = EDGE_LOOP ( 'NONE', ( #32, #185 ) ) ;
#162 = CARTESIAN_POINT ( 'NONE',  ( 8.000000000000000000, 9.797174393178825657E-16, 0.000000000000000000 ) ) ;
#163 = CC_DESIGN_PERSON_AND_ORGANIZATION_ASSIGNMENT ( #298, #58, ( #42 ) ) ;
#164 = ORIENTED_EDGE ( 'NONE', *, *, #220, .F. ) ;
#165 = ORIENTED_EDGE ( 'NONE', *, *, #77, .T. ) ;
#166 = CIRCLE ( 'NONE', #246, 0.1999999999999996503 ) ;
#167 = AXIS2_PLACEMENT_3D ( 'NONE', #271, #195, #170 ) ;
#168 = DIRECTION ( 'NONE',  ( 1.000000000000000000, 0.000000000000000000, 0.000000000000000000 ) ) ;
#169 = DIRECTION ( 'NONE',  ( 1.000000000000000000, 0.000000000000000000, 0.000000000000000000 ) ) ;
#170 = DIRECTION ( 'NONE',  ( 1.000000000000000000, 0.000000000000000000, 0.000000000000000000 ) ) ;
#171 = PLANE ( 'NONE',  #293 ) ;
#172 = APPROVAL_PERSON_ORGANIZATION ( #176, #254, #274 ) ;
#173 = EDGE_CURVE ( 'NONE', #41, #128, #192, .T. ) ;
#174 = CARTESIAN_POINT ( 'NONE',  ( 0.000000000000000000, 0.000000000000000000, 255.0000000000000000 ) ) ;
#175 = CARTESIAN_POINT ( 'NONE',  ( 0.000000000000000000, 0.000000000000000000, 5.200000000000009948 ) ) ;
#176 = PERSON_AND_ORGANIZATION ( #80, #92 ) ;
#177 = CIRCLE ( 'NONE', #44, 8.000000000000000000 ) ;
#178 = PERSON_AND_ORGANIZATION_ROLE ( 'creator' ) ;
#179 = SECURITY_CLASSIFICATION_LEVEL ( 'unclassified' ) ;
#180 = AXIS2_PLACEMENT_3D ( 'NONE', #23, #287, #101 ) ;
#181 = ADVANCED_FACE ( 'NONE', ( #50 ), #102, .T. ) ;
#182 =( NAMED_UNIT ( * ) PLANE_ANGLE_UNIT ( ) SI_UNIT ( $, .RADIAN. ) );
#183 = ORIENTED_EDGE ( 'NONE', *, *, #126, .F. ) ;
#184 = APPROVAL_ROLE ( '' ) ;
#185 = ORIENTED_EDGE ( 'NONE', *, *, #95, .T. ) ;
#186 = DIRECTION ( 'NONE',  ( 1.000000000000000000, 0.000000000000000000, 0.000000000000000000 ) ) ;
#187 = ADVANCED_FACE ( 'NONE', ( #97 ), #270, .T. ) ;
#188 = UNCERTAINTY_MEASURE_WITH_UNIT (LENGTH_MEASURE( 1.000000000000000082E-05 ), #7, 'distance_accuracy_value', 'NONE');
#189 = CARTESIAN_POINT ( 'NONE',  ( 5.000000000000000888, 6.123233995736767268E-16, 5.200000000000009948 ) ) ;
#190 = CARTESIAN_POINT ( 'NONE',  ( 0.000000000000000000, 0.000000000000000000, 5.200000000000009948 ) ) ;
#191 = ADVANCED_BREP_SHAPE_REPRESENTATION ( 'd022', ( #51, #29 ), #203 ) ;
#192 = LINE ( 'NONE', #119, #279 ) ;
#193 = EDGE_LOOP ( 'NONE', ( #164, #165, #155, #59 ) ) ;
#194 = AXIS2_PLACEMENT_3D ( 'NONE', #114, #239, #186 ) ;
#195 = DIRECTION ( 'NONE',  ( 0.000000000000000000, 0.000000000000000000, 1.000000000000000000 ) ) ;
#196 = DIRECTION ( 'NONE',  ( 0.000000000000000000, 0.000000000000000000, 1.000000000000000000 ) ) ;
#197 = EDGE_CURVE ( 'NONE', #128, #278, #68, .T. ) ;
#198 = DIRECTION ( 'NONE',  ( -0.000000000000000000, -0.000000000000000000, -1.000000000000000000 ) ) ;
#199 = CARTESIAN_POINT ( 'NONE',  ( 8.000000000000000000, 9.797174393178825657E-16, 5.000000000000000000 ) ) ;
#200 = DIRECTION ( 'NONE',  ( 1.000000000000000000, 0.000000000000000000, 0.000000000000000000 ) ) ;
#201 = APPROVAL_ROLE ( '' ) ;
#202 = ORIENTED_EDGE ( 'NONE', *, *, #126, .T. ) ;
#203 =( GEOMETRIC_REPRESENTATION_CONTEXT ( 3 ) GLOBAL_UNCERTAINTY_ASSIGNED_CONTEXT ( ( #188 ) ) GLOBAL_UNIT_ASSIGNED_CONTEXT ( ( #7, #182, #296 ) ) REPRESENTATION_CONTEXT ( 'NONE', 'WORKASPACE' ) );
#204 = PERSON_AND_ORGANIZATION ( #80, #92 ) ;
#205 = APPROVAL_STATUS ( 'not_yet_approved' ) ;
#206 = EDGE_CURVE ( 'NONE', #21, #134, #140, .T. ) ;
#207 = SHAPE_DEFINITION_REPRESENTATION ( #136, #191 ) ;
#208 = ORIENTED_EDGE ( 'NONE', *, *, #273, .T. ) ;
#209 = CIRCLE ( 'NONE', #34, 5.000000000000000888 ) ;
#210 = ORIENTED_EDGE ( 'NONE', *, *, #4, .T. ) ;
#211 = DIRECTION ( 'NONE',  ( 1.000000000000000000, 0.000000000000000000, -0.000000000000000000 ) ) ;
#212 = DIRECTION ( 'NONE',  ( 1.000000000000000000, 0.000000000000000000, 0.000000000000000000 ) ) ;
#213 = VECTOR ( 'NONE', #198, 1000.000000000000000 ) ;
#214 = ORIENTED_EDGE ( 'NONE', *, *, #220, .T. ) ;
#215 = DIRECTION ( 'NONE',  ( -1.000000000000000000, 1.224646799147353454E-16, 0.000000000000000000 ) ) ;
#216 = ADVANCED_FACE ( 'NONE', ( #221 ), #272, .T. ) ;
#217 = DIRECTION ( 'NONE',  ( 0.000000000000000000, 0.000000000000000000, 1.000000000000000000 ) ) ;
#218 = DIRECTION ( 'NONE',  ( 0.000000000000000000, 0.000000000000000000, 1.000000000000000000 ) ) ;
#219 = DIRECTION ( 'NONE',  ( 0.000000000000000000, 0.000000000000000000, 1.000000000000000000 ) ) ;
#220 = EDGE_CURVE ( 'NONE', #278, #128, #209, .T. ) ;
#221 = FACE_OUTER_BOUND ( 'NONE', #228, .T. ) ;
#222 = AXIS2_PLACEMENT_3D ( 'NONE', #93, #217, #115 ) ;
#223 = PLANE ( 'NONE',  #300 ) ;
#224 = LOCAL_TIME ( 11, 41, 12.00000000000000000, #259 ) ;
#225 = DIRECTION ( 'NONE',  ( -0.000000000000000000, -0.000000000000000000, -1.000000000000000000 ) ) ;
#226 = APPLICATION_CONTEXT ( 'configuration controlled 3d designs of mechanical parts and assemblies' ) ;
#227 = MECHANICAL_CONTEXT ( 'NONE', #226, 'mechanical' ) ;
#228 = EDGE_LOOP ( 'NONE', ( #267, #208, #18, #154 ) ) ;
#229 = APPROVAL_STATUS ( 'not_yet_approved' ) ;
#230 = EDGE_CURVE ( 'NONE', #252, #41, #24, .T. ) ;
#231 = ORIENTED_EDGE ( 'NONE', *, *, #197, .F. ) ;
#232 = DATE_AND_TIME ( #129, #307 ) ;
#233 = COORDINATED_UNIVERSAL_TIME_OFFSET ( 1, 0, .AHEAD. ) ;
#234 = SECURITY_CLASSIFICATION ( '', '', #179 ) ;
#235 = CARTESIAN_POINT ( 'NONE',  ( -8.000000000000000000, 0.000000000000000000, 5.000000000000000000 ) ) ;
#236 = DIRECTION ( 'NONE',  ( 0.000000000000000000, 0.000000000000000000, 1.000000000000000000 ) ) ;
#237 = FACE_OUTER_BOUND ( 'NONE', #61, .T. ) ;
#238 = ADVANCED_FACE ( 'NONE', ( #144, #99 ), #223, .T. ) ;
#239 = DIRECTION ( 'NONE',  ( 0.000000000000000000, 0.000000000000000000, 1.000000000000000000 ) ) ;
#240 = AXIS2_PLACEMENT_3D ( 'NONE', #285, #73, #168 ) ;
#241 = EDGE_CURVE ( 'NONE', #35, #297, #256, .T. ) ;
#242 = APPROVAL_PERSON_ORGANIZATION ( #103, #37, #201 ) ;
#243 = DIRECTION ( 'NONE',  ( 1.000000000000000000, 0.000000000000000000, -0.000000000000000000 ) ) ;
#244 = DIRECTION ( 'NONE',  ( 1.000000000000000000, 0.000000000000000000, -0.000000000000000000 ) ) ;
#245 = CYLINDRICAL_SURFACE ( 'NONE', #120, 5.000000000000000888 ) ;
#246 = AXIS2_PLACEMENT_3D ( 'NONE', #20, #264, #306 ) ;
#247 = CARTESIAN_POINT ( 'NONE',  ( 0.000000000000000000, 0.000000000000000000, 5.000000000000000000 ) ) ;
#248 = AXIS2_PLACEMENT_3D ( 'NONE', #175, #219, #200 ) ;
#249 = AXIS2_PLACEMENT_3D ( 'NONE', #268, #236, #49 ) ;
#250 = DATE_AND_TIME ( #127, #224 ) ;
#251 = PERSON_AND_ORGANIZATION_ROLE ( 'creator' ) ;
#252 = VERTEX_POINT ( 'NONE', #100 ) ;
#253 = CIRCLE ( 'NONE', #33, 0.1999999999999996503 ) ;
#254 = APPROVAL ( #229, 'NEURÈENÝ' ) ;
#255 = APPROVAL_STATUS ( 'not_yet_approved' ) ;
#256 = CIRCLE ( 'NONE', #5, 8.000000000000000000 ) ;
#257 = DATE_TIME_ROLE ( 'classification_date' ) ;
#258 = ORIENTED_EDGE ( 'NONE', *, *, #107, .T. ) ;
#259 = COORDINATED_UNIVERSAL_TIME_OFFSET ( 1, 0, .AHEAD. ) ;
#260 = TOROIDAL_SURFACE ( 'NONE', #139, 5.200000000000001066, 0.2000000000000000111 ) ;
#261 = LOCAL_TIME ( 11, 41, 12.00000000000000000, #84 ) ;
#262 = DIRECTION ( 'NONE',  ( 0.000000000000000000, 0.000000000000000000, 1.000000000000000000 ) ) ;
#263 = APPLICATION_CONTEXT ( 'configuration controlled 3d designs of mechanical parts and assemblies' ) ;
#264 = DIRECTION ( 'NONE',  ( 0.000000000000000000, -1.000000000000000000, 0.000000000000000000 ) ) ;
#265 = ADVANCED_FACE ( 'NONE', ( #25 ), #171, .F. ) ;
#266 = PLANE ( 'NONE',  #149 ) ;
#267 = ORIENTED_EDGE ( 'NONE', *, *, #53, .F. ) ;
#268 = CARTESIAN_POINT ( 'NONE',  ( 0.000000000000000000, 0.000000000000000000, 255.0000000000000000 ) ) ;
#269 = CARTESIAN_POINT ( 'NONE',  ( 0.000000000000000000, 0.000000000000000000, 5.000000000000000000 ) ) ;
#270 = CYLINDRICAL_SURFACE ( 'NONE', #56, 5.000000000000000888 ) ;
#271 = CARTESIAN_POINT ( 'NONE',  ( 0.000000000000000000, 0.000000000000000000, 255.0000000000000000 ) ) ;
#272 = CYLINDRICAL_SURFACE ( 'NONE', #145, 8.000000000000000000 ) ;
#273 = EDGE_CURVE ( 'NONE', #71, #35, #26, .T. ) ;
#274 = APPROVAL_ROLE ( '' ) ;
#275 = EDGE_LOOP ( 'NONE', ( #258, #138 ) ) ;
#276 = APPLICATION_PROTOCOL_DEFINITION ( 'international standard', 'config_control_design', 1994, #263 ) ;
#277 = EDGE_LOOP ( 'NONE', ( #12, #210 ) ) ;
#278 = VERTEX_POINT ( 'NONE', #290 ) ;
#279 = VECTOR ( 'NONE', #122, 1000.000000000000000 ) ;
#280 = APPROVAL_PERSON_ORGANIZATION ( #204, #124, #184 ) ;
#281 = DIRECTION ( 'NONE',  ( 0.000000000000000000, 0.000000000000000000, 1.000000000000000000 ) ) ;
#282 = CC_DESIGN_PERSON_AND_ORGANIZATION_ASSIGNMENT ( #106, #158, ( #234 ) ) ;
#283 = CARTESIAN_POINT ( 'NONE',  ( -5.000000000000000888, 0.000000000000000000, 255.0000000000000000 ) ) ;
#284 = VECTOR ( 'NONE', #70, 1000.000000000000000 ) ;
#285 = CARTESIAN_POINT ( 'NONE',  ( 0.000000000000000000, 0.000000000000000000, 5.200000000000009948 ) ) ;
#286 = DIRECTION ( 'NONE',  ( 1.224646799147353207E-16, 1.000000000000000000, -0.000000000000000000 ) ) ;
#287 = DIRECTION ( 'NONE',  ( -0.000000000000000000, -0.000000000000000000, -1.000000000000000000 ) ) ;
#288 = CIRCLE ( 'NONE', #160, 5.200000000000001066 ) ;
#289 = CC_DESIGN_APPROVAL ( #254, ( #105 ) ) ;
#290 = CARTESIAN_POINT ( 'NONE',  ( -5.000000000000000888, 0.000000000000000000, 5.200000000000009948 ) ) ;
#291 = CC_DESIGN_PERSON_AND_ORGANIZATION_ASSIGNMENT ( #60, #251, ( #105 ) ) ;
#292 = APPROVAL_DATE_TIME ( #250, #37 ) ;
#293 = AXIS2_PLACEMENT_3D ( 'NONE', #54, #146, #244 ) ;
#294 = ADVANCED_FACE ( 'NONE', ( #79 ), #245, .T. ) ;
#295 = ORIENTED_EDGE ( 'NONE', *, *, #4, .F. ) ;
#296 =( NAMED_UNIT ( * ) SI_UNIT ( $, .STERADIAN. ) SOLID_ANGLE_UNIT ( ) );
#297 = VERTEX_POINT ( 'NONE', #28 ) ;
#298 = PERSON_AND_ORGANIZATION ( #80, #92 ) ;
#299 = ORIENTED_EDGE ( 'NONE', *, *, #173, .F. ) ;
#300 = AXIS2_PLACEMENT_3D ( 'NONE', #247, #196, #243 ) ;
#301 = PERSON_AND_ORGANIZATION ( #80, #92 ) ;
#302 = CARTESIAN_POINT ( 'NONE',  ( -5.200000000000001066, 6.368163355566237368E-16, 5.200000000000009948 ) ) ;
#303 = CC_DESIGN_DATE_AND_TIME_ASSIGNMENT ( #8, #125, ( #148 ) ) ;
#304 = CARTESIAN_POINT ( 'NONE',  ( 0.000000000000000000, 0.000000000000000000, 5.000000000000000000 ) ) ;
#305 = LINE ( 'NONE', #283, #284 ) ;
#306 = DIRECTION ( 'NONE',  ( 0.000000000000000000, 0.000000000000000000, -1.000000000000000000 ) ) ;
#307 = LOCAL_TIME ( 11, 41, 12.00000000000000000, #86 ) ;
ENDSEC;
END-ISO-10303-21;
