ISO-10303-21;
HEADER;
FILE_DESCRIPTION (( 'STEP AP203' ),
    '1' );
FILE_NAME ('cc70.STEP',
    '2022-06-20T10:24:29',
    ( '' ),
    ( '' ),
    'SwSTEP 2.0',
    'SolidWorks 2019',
    '' );
FILE_SCHEMA (( 'CONFIG_CONTROL_DESIGN' ));
ENDSEC;

DATA;
#1 = EDGE_LOOP ( 'NONE', ( #72, #19, #302, #258 ) ) ;
#2 = VECTOR ( 'NONE', #168, 1000.000000000000000 ) ;
#3 = CARTESIAN_POINT ( 'NONE',  ( -0.6500000000000000222, 0.000000000000000000, 101.5000000000000000 ) ) ;
#4 = EDGE_CURVE ( 'NONE', #287, #44, #213, .T. ) ;
#5 = COORDINATED_UNIVERSAL_TIME_OFFSET ( 1, 0, .AHEAD. ) ;
#6 = DIRECTION ( 'NONE',  ( 0.000000000000000000, -1.000000000000000000, 0.000000000000000000 ) ) ;
#7 = DIRECTION ( 'NONE',  ( -1.000000000000000000, 0.000000000000000000, 0.000000000000000000 ) ) ;
#8 = AXIS2_PLACEMENT_3D ( 'NONE', #55, #146, #243 ) ;
#9 = DIRECTION ( 'NONE',  ( -0.000000000000000000, -0.000000000000000000, -1.000000000000000000 ) ) ;
#10 = CC_DESIGN_PERSON_AND_ORGANIZATION_ASSIGNMENT ( #198, #226, ( #285 ) ) ;
#11 = DIRECTION ( 'NONE',  ( 1.000000000000000000, 0.000000000000000000, 0.000000000000000000 ) ) ;
#12 = FACE_OUTER_BOUND ( 'NONE', #47, .T. ) ;
#13 = CALENDAR_DATE ( 2022, 20, 6 ) ;
#14 = DIRECTION ( 'NONE',  ( -1.000000000000000000, 0.000000000000000000, 0.000000000000000000 ) ) ;
#15 = EDGE_CURVE ( 'NONE', #44, #287, #283, .T. ) ;
#16 =( NAMED_UNIT ( * ) PLANE_ANGLE_UNIT ( ) SI_UNIT ( $, .RADIAN. ) );
#17 = CARTESIAN_POINT ( 'NONE',  ( -1.500000000000000222, 0.000000000000000000, 1.500000000000000000 ) ) ;
#18 = VERTEX_POINT ( 'NONE', #54 ) ;
#19 = ORIENTED_EDGE ( 'NONE', *, *, #282, .T. ) ;
#20 = DESIGN_CONTEXT ( 'detailed design', #128, 'design' ) ;
#21 = AXIS2_PLACEMENT_3D ( 'NONE', #102, #269, #130 ) ;
#22 =( NAMED_UNIT ( * ) SI_UNIT ( $, .STERADIAN. ) SOLID_ANGLE_UNIT ( ) );
#23 = ORIENTED_EDGE ( 'NONE', *, *, #171, .F. ) ;
#24 = ORIENTED_EDGE ( 'NONE', *, *, #4, .T. ) ;
#25 = ORIENTED_EDGE ( 'NONE', *, *, #112, .T. ) ;
#26 = CIRCLE ( 'NONE', #212, 0.1999999999999999833 ) ;
#27 = EDGE_CURVE ( 'NONE', #259, #225, #268, .T. ) ;
#28 = FACE_OUTER_BOUND ( 'NONE', #96, .T. ) ;
#29 = CARTESIAN_POINT ( 'NONE',  ( 0.000000000000000000, 0.000000000000000000, 1.500000000000000000 ) ) ;
#30 = EDGE_LOOP ( 'NONE', ( #191, #114 ) ) ;
#31 = CIRCLE ( 'NONE', #42, 0.6500000000000000222 ) ;
#32 = DIRECTION ( 'NONE',  ( -0.000000000000000000, -0.000000000000000000, -1.000000000000000000 ) ) ;
#33 = DATE_TIME_ROLE ( 'creation_date' ) ;
#34 = DIRECTION ( 'NONE',  ( 0.000000000000000000, 0.000000000000000000, 1.000000000000000000 ) ) ;
#35 = APPLICATION_CONTEXT ( 'configuration controlled 3d designs of mechanical parts and assemblies' ) ;
#36 = PERSON_AND_ORGANIZATION ( #260, #200 ) ;
#37 = PRODUCT_DEFINITION_SHAPE ( 'NONE', 'NONE',  #285 ) ;
#38 = CLOSED_SHELL ( 'NONE', ( #306, #145, #61, #261, #230, #49, #300, #138, #103 ) ) ;
#39 = PERSON_AND_ORGANIZATION_ROLE ( 'design_supplier' ) ;
#40 = DIRECTION ( 'NONE',  ( 0.000000000000000000, 0.000000000000000000, 1.000000000000000000 ) ) ;
#41 = COORDINATED_UNIVERSAL_TIME_OFFSET ( 1, 0, .AHEAD. ) ;
#42 = AXIS2_PLACEMENT_3D ( 'NONE', #127, #34, #97 ) ;
#43 = CARTESIAN_POINT ( 'NONE',  ( 0.000000000000000000, 0.000000000000000000, 1.500000000000000000 ) ) ;
#44 = VERTEX_POINT ( 'NONE', #3 ) ;
#45 = APPROVAL_STATUS ( 'not_yet_approved' ) ;
#46 = CARTESIAN_POINT ( 'NONE',  ( 0.6500000000000000222, 7.960204194457795477E-17, 101.5000000000000000 ) ) ;
#47 = EDGE_LOOP ( 'NONE', ( #218, #262 ) ) ;
#48 = ORIENTED_EDGE ( 'NONE', *, *, #273, .T. ) ;
#49 = ADVANCED_FACE ( 'NONE', ( #28 ), #229, .F. ) ;
#50 = ORIENTED_EDGE ( 'NONE', *, *, #27, .F. ) ;
#51 = CARTESIAN_POINT ( 'NONE',  ( -0.6500000000000000222, 0.000000000000000000, 1.700000000000007061 ) ) ;
#52 = AXIS2_PLACEMENT_3D ( 'NONE', #43, #231, #14 ) ;
#53 = CARTESIAN_POINT ( 'NONE',  ( 0.000000000000000000, 0.000000000000000000, 0.000000000000000000 ) ) ;
#54 = CARTESIAN_POINT ( 'NONE',  ( 1.500000000000000222, 1.836970198721030181E-16, 1.500000000000000000 ) ) ;
#55 = CARTESIAN_POINT ( 'NONE',  ( 0.000000000000000000, 0.000000000000000000, 101.5000000000000000 ) ) ;
#56 = AXIS2_PLACEMENT_3D ( 'NONE', #194, #291, #151 ) ;
#57 = LINE ( 'NONE', #66, #150 ) ;
#58 = ORIENTED_EDGE ( 'NONE', *, *, #219, .F. ) ;
#59 = APPROVAL_ROLE ( '' ) ;
#60 = DIRECTION ( 'NONE',  ( 0.000000000000000000, 0.000000000000000000, 1.000000000000000000 ) ) ;
#61 = ADVANCED_FACE ( 'NONE', ( #245 ), #296, .T. ) ;
#62 = FACE_OUTER_BOUND ( 'NONE', #217, .T. ) ;
#63 = AXIS2_PLACEMENT_3D ( 'NONE', #238, #152, #126 ) ;
#64 = CIRCLE ( 'NONE', #244, 1.500000000000000222 ) ;
#65 = DIRECTION ( 'NONE',  ( 0.000000000000000000, 0.000000000000000000, 1.000000000000000000 ) ) ;
#66 = CARTESIAN_POINT ( 'NONE',  ( -0.6500000000000000222, 0.000000000000000000, 101.5000000000000000 ) ) ;
#67 = CC_DESIGN_APPROVAL ( #148, ( #137 ) ) ;
#68 = DATE_TIME_ROLE ( 'classification_date' ) ;
#69 = VERTEX_POINT ( 'NONE', #307 ) ;
#70 = EDGE_CURVE ( 'NONE', #94, #140, #26, .T. ) ;
#71 = ORIENTED_EDGE ( 'NONE', *, *, #166, .F. ) ;
#72 = ORIENTED_EDGE ( 'NONE', *, *, #4, .F. ) ;
#73 = MANIFOLD_SOLID_BREP ( 'Zaoblit1', #38 ) ;
#74 = EDGE_LOOP ( 'NONE', ( #23, #263, #48, #170 ) ) ;
#75 = CARTESIAN_POINT ( 'NONE',  ( -1.500000000000000222, 0.000000000000000000, 1.500000000000000000 ) ) ;
#76 = AXIS2_PLACEMENT_3D ( 'NONE', #53, #267, #266 ) ;
#77 = DIRECTION ( 'NONE',  ( 1.224646799147353207E-16, 1.000000000000000000, -0.000000000000000000 ) ) ;
#78 = ADVANCED_BREP_SHAPE_REPRESENTATION ( 'cc70', ( #73, #56 ), #264 ) ;
#79 = DIRECTION ( 'NONE',  ( 0.000000000000000000, 0.000000000000000000, -1.000000000000000000 ) ) ;
#80 = CARTESIAN_POINT ( 'NONE',  ( 0.000000000000000000, 0.000000000000000000, 101.5000000000000000 ) ) ;
#81 = DATE_AND_TIME ( #122, #92 ) ;
#82 = PERSON_AND_ORGANIZATION ( #260, #200 ) ;
#83 = CYLINDRICAL_SURFACE ( 'NONE', #131, 0.6500000000000000222 ) ;
#84 = SECURITY_CLASSIFICATION_LEVEL ( 'unclassified' ) ;
#85 = PRODUCT ( 'cc70', 'cc70', '', ( #202 ) ) ;
#86 = EDGE_CURVE ( 'NONE', #259, #94, #31, .T. ) ;
#87 = AXIS2_PLACEMENT_3D ( 'NONE', #163, #65, #11 ) ;
#88 = APPROVAL_ROLE ( '' ) ;
#89 = PLANE ( 'NONE',  #234 ) ;
#90 = CARTESIAN_POINT ( 'NONE',  ( 0.6500000000000000222, 7.960204194457795477E-17, 101.5000000000000000 ) ) ;
#91 = DATE_AND_TIME ( #13, #188 ) ;
#92 = LOCAL_TIME ( 12, 24, 29.00000000000000000, #275 ) ;
#93 = ORIENTED_EDGE ( 'NONE', *, *, #27, .T. ) ;
#94 = VERTEX_POINT ( 'NONE', #51 ) ;
#95 = LOCAL_TIME ( 12, 24, 29.00000000000000000, #5 ) ;
#96 = EDGE_LOOP ( 'NONE', ( #288, #211 ) ) ;
#97 = DIRECTION ( 'NONE',  ( 1.000000000000000000, 0.000000000000000000, 0.000000000000000000 ) ) ;
#98 = CARTESIAN_POINT ( 'NONE',  ( 0.8499999999999999778, 0.000000000000000000, 1.700000000000007061 ) ) ;
#99 = AXIS2_PLACEMENT_3D ( 'NONE', #80, #192, #289 ) ;
#100 = CIRCLE ( 'NONE', #167, 1.500000000000000222 ) ;
#101 = DIRECTION ( 'NONE',  ( 0.000000000000000000, 0.000000000000000000, 1.000000000000000000 ) ) ;
#102 = CARTESIAN_POINT ( 'NONE',  ( 0.000000000000000000, 0.000000000000000000, 1.500000000000000000 ) ) ;
#103 = ADVANCED_FACE ( 'NONE', ( #174 ), #158, .F. ) ;
#104 = AXIS2_PLACEMENT_3D ( 'NONE', #172, #121, #7 ) ;
#105 = APPLICATION_PROTOCOL_DEFINITION ( 'international standard', 'config_control_design', 1994, #35 ) ;
#106 = APPLICATION_PROTOCOL_DEFINITION ( 'international standard', 'config_control_design', 1994, #128 ) ;
#107 = CC_DESIGN_PERSON_AND_ORGANIZATION_ASSIGNMENT ( #205, #165, ( #237 ) ) ;
#108 = DIRECTION ( 'NONE',  ( 1.000000000000000000, 0.000000000000000000, 0.000000000000000000 ) ) ;
#109 = CIRCLE ( 'NONE', #76, 1.500000000000000222 ) ;
#110 = CIRCLE ( 'NONE', #87, 0.6500000000000000222 ) ;
#111 = LINE ( 'NONE', #17, #141 ) ;
#112 = EDGE_CURVE ( 'NONE', #69, #286, #109, .T. ) ;
#113 = ORIENTED_EDGE ( 'NONE', *, *, #273, .F. ) ;
#114 = ORIENTED_EDGE ( 'NONE', *, *, #166, .T. ) ;
#115 = APPROVAL ( #45, 'NEURÈENÝ' ) ;
#116 = ORIENTED_EDGE ( 'NONE', *, *, #15, .F. ) ;
#117 = EDGE_LOOP ( 'NONE', ( #193, #301, #93, #71 ) ) ;
#118 = CC_DESIGN_APPROVAL ( #115, ( #237 ) ) ;
#119 = DIRECTION ( 'NONE',  ( 0.000000000000000000, 0.000000000000000000, 1.000000000000000000 ) ) ;
#120 = CC_DESIGN_PERSON_AND_ORGANIZATION_ASSIGNMENT ( #271, #242, ( #85 ) ) ;
#121 = DIRECTION ( 'NONE',  ( -0.000000000000000000, -0.000000000000000000, -1.000000000000000000 ) ) ;
#122 = CALENDAR_DATE ( 2022, 20, 6 ) ;
#123 = CARTESIAN_POINT ( 'NONE',  ( 0.000000000000000000, 0.000000000000000000, 0.000000000000000000 ) ) ;
#124 = TOROIDAL_SURFACE ( 'NONE', #144, 0.8499999999999999778, 0.2000000000000000111 ) ;
#125 = APPROVAL_STATUS ( 'not_yet_approved' ) ;
#126 = DIRECTION ( 'NONE',  ( 1.000000000000000000, 0.000000000000000000, 0.000000000000000000 ) ) ;
#127 = CARTESIAN_POINT ( 'NONE',  ( 0.000000000000000000, 0.000000000000000000, 1.700000000000007061 ) ) ;
#128 = APPLICATION_CONTEXT ( 'configuration controlled 3d designs of mechanical parts and assemblies' ) ;
#129 = PERSON_AND_ORGANIZATION_ROLE ( 'creator' ) ;
#130 = DIRECTION ( 'NONE',  ( 1.000000000000000000, 0.000000000000000000, 0.000000000000000000 ) ) ;
#131 = AXIS2_PLACEMENT_3D ( 'NONE', #179, #277, #153 ) ;
#132 = APPROVAL_DATE_TIME ( #246, #148 ) ;
#133 = CARTESIAN_POINT ( 'NONE',  ( 1.500000000000000222, 1.836970198721030181E-16, 1.500000000000000000 ) ) ;
#134 = FACE_BOUND ( 'NONE', #30, .T. ) ;
#135 = CARTESIAN_POINT ( 'NONE',  ( 0.6500000000000000222, 7.960204194457795477E-17, 1.700000000000007061 ) ) ;
#136 = AXIS2_PLACEMENT_3D ( 'NONE', #98, #6, #79 ) ;
#137 = PRODUCT_DEFINITION_FORMATION_WITH_SPECIFIED_SOURCE ( 'LIBOVOLNÝ', '', #85, .NOT_KNOWN. ) ;
#138 = ADVANCED_FACE ( 'NONE', ( #149 ), #199, .T. ) ;
#139 = ORIENTED_EDGE ( 'NONE', *, *, #293, .T. ) ;
#140 = VERTEX_POINT ( 'NONE', #147 ) ;
#141 = VECTOR ( 'NONE', #247, 1000.000000000000000 ) ;
#142 = VERTEX_POINT ( 'NONE', #75 ) ;
#143 = DIRECTION ( 'NONE',  ( 0.000000000000000000, 0.000000000000000000, 1.000000000000000000 ) ) ;
#144 = AXIS2_PLACEMENT_3D ( 'NONE', #274, #250, #108 ) ;
#145 = ADVANCED_FACE ( 'NONE', ( #173 ), #265, .T. ) ;
#146 = DIRECTION ( 'NONE',  ( -0.000000000000000000, -0.000000000000000000, -1.000000000000000000 ) ) ;
#147 = CARTESIAN_POINT ( 'NONE',  ( -0.8499999999999999778, 1.040949779275250140E-16, 1.500000000000003553 ) ) ;
#148 = APPROVAL ( #180, 'NEURÈENÝ' ) ;
#149 = FACE_OUTER_BOUND ( 'NONE', #239, .T. ) ;
#150 = VECTOR ( 'NONE', #186, 1000.000000000000000 ) ;
#151 = DIRECTION ( 'NONE',  ( 1.000000000000000000, 0.000000000000000000, 0.000000000000000000 ) ) ;
#152 = DIRECTION ( 'NONE',  ( 0.000000000000000000, 0.000000000000000000, 1.000000000000000000 ) ) ;
#153 = DIRECTION ( 'NONE',  ( -1.000000000000000000, 0.000000000000000000, 0.000000000000000000 ) ) ;
#154 = CALENDAR_DATE ( 2022, 20, 6 ) ;
#155 = DIRECTION ( 'NONE',  ( 1.000000000000000000, 0.000000000000000000, 0.000000000000000000 ) ) ;
#156 = PERSON_AND_ORGANIZATION ( #260, #200 ) ;
#157 = DIRECTION ( 'NONE',  ( 1.000000000000000000, 0.000000000000000000, 0.000000000000000000 ) ) ;
#158 = TOROIDAL_SURFACE ( 'NONE', #206, 0.8499999999999999778, 0.2000000000000000111 ) ;
#159 = CC_DESIGN_PERSON_AND_ORGANIZATION_ASSIGNMENT ( #82, #39, ( #137 ) ) ;
#160 = AXIS2_PLACEMENT_3D ( 'NONE', #29, #32, #227 ) ;
#161 = SHAPE_DEFINITION_REPRESENTATION ( #37, #78 ) ;
#162 = CALENDAR_DATE ( 2022, 20, 6 ) ;
#163 = CARTESIAN_POINT ( 'NONE',  ( 0.000000000000000000, 0.000000000000000000, 1.700000000000007061 ) ) ;
#164 = FACE_OUTER_BOUND ( 'NONE', #292, .T. ) ;
#165 = PERSON_AND_ORGANIZATION_ROLE ( 'classification_officer' ) ;
#166 = EDGE_CURVE ( 'NONE', #140, #225, #214, .T. ) ;
#167 = AXIS2_PLACEMENT_3D ( 'NONE', #184, #40, #155 ) ;
#168 = DIRECTION ( 'NONE',  ( -0.000000000000000000, -0.000000000000000000, -1.000000000000000000 ) ) ;
#169 = EDGE_CURVE ( 'NONE', #18, #142, #178, .T. ) ;
#170 = ORIENTED_EDGE ( 'NONE', *, *, #235, .T. ) ;
#171 = EDGE_CURVE ( 'NONE', #18, #69, #204, .T. ) ;
#172 = CARTESIAN_POINT ( 'NONE',  ( 0.000000000000000000, 0.000000000000000000, 1.500000000000000000 ) ) ;
#173 = FACE_OUTER_BOUND ( 'NONE', #1, .T. ) ;
#174 = FACE_OUTER_BOUND ( 'NONE', #117, .T. ) ;
#175 = CC_DESIGN_DATE_AND_TIME_ASSIGNMENT ( #91, #68, ( #237 ) ) ;
#176 = DIRECTION ( 'NONE',  ( 1.000000000000000000, 0.000000000000000000, 0.000000000000000000 ) ) ;
#177 = CARTESIAN_POINT ( 'NONE',  ( -0.8499999999999999778, 1.040949779275250140E-16, 1.700000000000007061 ) ) ;
#178 = CIRCLE ( 'NONE', #21, 1.500000000000000222 ) ;
#179 = CARTESIAN_POINT ( 'NONE',  ( 0.000000000000000000, 0.000000000000000000, 101.5000000000000000 ) ) ;
#180 = APPROVAL_STATUS ( 'not_yet_approved' ) ;
#181 = CARTESIAN_POINT ( 'NONE',  ( 0.000000000000000000, 0.000000000000000000, 1.500000000000000000 ) ) ;
#182 = EDGE_CURVE ( 'NONE', #225, #140, #249, .T. ) ;
#183 = AXIS2_PLACEMENT_3D ( 'NONE', #290, #143, #197 ) ;
#184 = CARTESIAN_POINT ( 'NONE',  ( 0.000000000000000000, 0.000000000000000000, 0.000000000000000000 ) ) ;
#185 = CC_DESIGN_DATE_AND_TIME_ASSIGNMENT ( #81, #33, ( #285 ) ) ;
#186 = DIRECTION ( 'NONE',  ( -0.000000000000000000, -0.000000000000000000, -1.000000000000000000 ) ) ;
#187 = DIRECTION ( 'NONE',  ( 1.000000000000000000, 0.000000000000000000, 0.000000000000000000 ) ) ;
#188 = LOCAL_TIME ( 12, 24, 29.00000000000000000, #210 ) ;
#189 = DATE_AND_TIME ( #162, #255 ) ;
#190 = ORIENTED_EDGE ( 'NONE', *, *, #169, .F. ) ;
#191 = ORIENTED_EDGE ( 'NONE', *, *, #182, .T. ) ;
#192 = DIRECTION ( 'NONE',  ( 0.000000000000000000, 0.000000000000000000, 1.000000000000000000 ) ) ;
#193 = ORIENTED_EDGE ( 'NONE', *, *, #70, .F. ) ;
#194 = CARTESIAN_POINT ( 'NONE',  ( 0.000000000000000000, 0.000000000000000000, 0.000000000000000000 ) ) ;
#195 = ORIENTED_EDGE ( 'NONE', *, *, #15, .T. ) ;
#196 = DATE_AND_TIME ( #203, #95 ) ;
#197 = DIRECTION ( 'NONE',  ( 1.000000000000000000, 0.000000000000000000, 0.000000000000000000 ) ) ;
#198 = PERSON_AND_ORGANIZATION ( #260, #200 ) ;
#199 = PLANE ( 'NONE',  #99 ) ;
#200 = ORGANIZATION ( 'NEURÈENÝ', 'NEURÈENÝ', '' ) ;
#201 = PRODUCT_RELATED_PRODUCT_CATEGORY ( 'detail', '', ( #85 ) ) ;
#202 = MECHANICAL_CONTEXT ( 'NONE', #35, 'mechanical' ) ;
#203 = CALENDAR_DATE ( 2022, 20, 6 ) ;
#204 = LINE ( 'NONE', #133, #276 ) ;
#205 = PERSON_AND_ORGANIZATION ( #260, #200 ) ;
#206 = AXIS2_PLACEMENT_3D ( 'NONE', #294, #119, #176 ) ;
#207 = EDGE_CURVE ( 'NONE', #142, #18, #64, .T. ) ;
#208 = FACE_OUTER_BOUND ( 'NONE', #74, .T. ) ;
#209 = CARTESIAN_POINT ( 'NONE',  ( 0.8499999999999999778, 0.000000000000000000, 1.500000000000003553 ) ) ;
#210 = COORDINATED_UNIVERSAL_TIME_OFFSET ( 1, 0, .AHEAD. ) ;
#211 = ORIENTED_EDGE ( 'NONE', *, *, #112, .F. ) ;
#212 = AXIS2_PLACEMENT_3D ( 'NONE', #177, #77, #223 ) ;
#213 = CIRCLE ( 'NONE', #183, 0.6500000000000000222 ) ;
#214 = CIRCLE ( 'NONE', #160, 0.8499999999999999778 ) ;
#215 = APPROVAL_PERSON_ORGANIZATION ( #278, #115, #88 ) ;
#216 = ORIENTED_EDGE ( 'NONE', *, *, #282, .F. ) ;
#217 = EDGE_LOOP ( 'NONE', ( #58, #236, #284, #50 ) ) ;
#218 = ORIENTED_EDGE ( 'NONE', *, *, #207, .T. ) ;
#219 = EDGE_CURVE ( 'NONE', #94, #259, #110, .T. ) ;
#220 = LOCAL_TIME ( 12, 24, 29.00000000000000000, #248 ) ;
#221 = DIRECTION ( 'NONE',  ( 1.000000000000000000, 0.000000000000000000, -0.000000000000000000 ) ) ;
#222 = UNCERTAINTY_MEASURE_WITH_UNIT (LENGTH_MEASURE( 1.000000000000000082E-05 ), #233, 'distance_accuracy_value', 'NONE');
#223 = DIRECTION ( 'NONE',  ( -1.000000000000000000, 1.224646799147352714E-16, 0.000000000000000000 ) ) ;
#224 = APPROVAL_ROLE ( '' ) ;
#225 = VERTEX_POINT ( 'NONE', #209 ) ;
#226 = PERSON_AND_ORGANIZATION_ROLE ( 'creator' ) ;
#227 = DIRECTION ( 'NONE',  ( 1.000000000000000000, 0.000000000000000000, 0.000000000000000000 ) ) ;
#228 = PERSON_AND_ORGANIZATION ( #260, #200 ) ;
#229 = PLANE ( 'NONE',  #295 ) ;
#230 = ADVANCED_FACE ( 'NONE', ( #134, #12 ), #89, .T. ) ;
#231 = DIRECTION ( 'NONE',  ( -0.000000000000000000, -0.000000000000000000, -1.000000000000000000 ) ) ;
#232 = APPROVAL_PERSON_ORGANIZATION ( #156, #240, #224 ) ;
#233 =( LENGTH_UNIT ( ) NAMED_UNIT ( * ) SI_UNIT ( .MILLI., .METRE. ) );
#234 = AXIS2_PLACEMENT_3D ( 'NONE', #281, #252, #279 ) ;
#235 = EDGE_CURVE ( 'NONE', #286, #69, #100, .T. ) ;
#236 = ORIENTED_EDGE ( 'NONE', *, *, #70, .T. ) ;
#237 = SECURITY_CLASSIFICATION ( '', '', #84 ) ;
#238 = CARTESIAN_POINT ( 'NONE',  ( 0.000000000000000000, 0.000000000000000000, 101.5000000000000000 ) ) ;
#239 = EDGE_LOOP ( 'NONE', ( #195, #24 ) ) ;
#240 = APPROVAL ( #125, 'NEURÈENÝ' ) ;
#241 = EDGE_LOOP ( 'NONE', ( #190, #305, #25, #113 ) ) ;
#242 = PERSON_AND_ORGANIZATION_ROLE ( 'design_owner' ) ;
#243 = DIRECTION ( 'NONE',  ( -1.000000000000000000, 0.000000000000000000, 0.000000000000000000 ) ) ;
#244 = AXIS2_PLACEMENT_3D ( 'NONE', #251, #60, #157 ) ;
#245 = FACE_OUTER_BOUND ( 'NONE', #241, .T. ) ;
#246 = DATE_AND_TIME ( #154, #220 ) ;
#247 = DIRECTION ( 'NONE',  ( -0.000000000000000000, -0.000000000000000000, -1.000000000000000000 ) ) ;
#248 = COORDINATED_UNIVERSAL_TIME_OFFSET ( 1, 0, .AHEAD. ) ;
#249 = CIRCLE ( 'NONE', #254, 0.8499999999999999778 ) ;
#250 = DIRECTION ( 'NONE',  ( 0.000000000000000000, 0.000000000000000000, 1.000000000000000000 ) ) ;
#251 = CARTESIAN_POINT ( 'NONE',  ( 0.000000000000000000, 0.000000000000000000, 1.500000000000000000 ) ) ;
#252 = DIRECTION ( 'NONE',  ( 0.000000000000000000, 0.000000000000000000, 1.000000000000000000 ) ) ;
#253 = CYLINDRICAL_SURFACE ( 'NONE', #52, 1.500000000000000222 ) ;
#254 = AXIS2_PLACEMENT_3D ( 'NONE', #181, #272, #187 ) ;
#255 = LOCAL_TIME ( 12, 24, 29.00000000000000000, #41 ) ;
#256 = CC_DESIGN_PERSON_AND_ORGANIZATION_ASSIGNMENT ( #36, #129, ( #137 ) ) ;
#257 = CARTESIAN_POINT ( 'NONE',  ( -1.500000000000000222, 0.000000000000000000, 0.000000000000000000 ) ) ;
#258 = ORIENTED_EDGE ( 'NONE', *, *, #293, .F. ) ;
#259 = VERTEX_POINT ( 'NONE', #135 ) ;
#260 = PERSON ( 'NEURÈENÝ', 'NEURÈENÝ', 'NEURÈENÝ', ('NEURÈENÝ'), ('NEURÈENÝ'), ('NEURÈENÝ') ) ;
#261 = ADVANCED_FACE ( 'NONE', ( #208 ), #253, .T. ) ;
#262 = ORIENTED_EDGE ( 'NONE', *, *, #169, .T. ) ;
#263 = ORIENTED_EDGE ( 'NONE', *, *, #207, .F. ) ;
#264 =( GEOMETRIC_REPRESENTATION_CONTEXT ( 3 ) GLOBAL_UNCERTAINTY_ASSIGNED_CONTEXT ( ( #222 ) ) GLOBAL_UNIT_ASSIGNED_CONTEXT ( ( #233, #16, #22 ) ) REPRESENTATION_CONTEXT ( 'NONE', 'WORKASPACE' ) );
#265 = CYLINDRICAL_SURFACE ( 'NONE', #8, 0.6500000000000000222 ) ;
#266 = DIRECTION ( 'NONE',  ( 1.000000000000000000, 0.000000000000000000, 0.000000000000000000 ) ) ;
#267 = DIRECTION ( 'NONE',  ( 0.000000000000000000, 0.000000000000000000, 1.000000000000000000 ) ) ;
#268 = CIRCLE ( 'NONE', #136, 0.2000000000000000944 ) ;
#269 = DIRECTION ( 'NONE',  ( 0.000000000000000000, 0.000000000000000000, 1.000000000000000000 ) ) ;
#270 = CC_DESIGN_APPROVAL ( #240, ( #285 ) ) ;
#271 = PERSON_AND_ORGANIZATION ( #260, #200 ) ;
#272 = DIRECTION ( 'NONE',  ( -0.000000000000000000, -0.000000000000000000, -1.000000000000000000 ) ) ;
#273 = EDGE_CURVE ( 'NONE', #142, #286, #111, .T. ) ;
#274 = CARTESIAN_POINT ( 'NONE',  ( 0.000000000000000000, 0.000000000000000000, 1.700000000000007061 ) ) ;
#275 = COORDINATED_UNIVERSAL_TIME_OFFSET ( 1, 0, .AHEAD. ) ;
#276 = VECTOR ( 'NONE', #9, 1000.000000000000000 ) ;
#277 = DIRECTION ( 'NONE',  ( -0.000000000000000000, -0.000000000000000000, -1.000000000000000000 ) ) ;
#278 = PERSON_AND_ORGANIZATION ( #260, #200 ) ;
#279 = DIRECTION ( 'NONE',  ( 1.000000000000000000, 0.000000000000000000, -0.000000000000000000 ) ) ;
#280 = APPROVAL_DATE_TIME ( #189, #115 ) ;
#281 = CARTESIAN_POINT ( 'NONE',  ( 0.000000000000000000, 0.000000000000000000, 1.500000000000000000 ) ) ;
#282 = EDGE_CURVE ( 'NONE', #287, #259, #299, .T. ) ;
#283 = CIRCLE ( 'NONE', #63, 0.6500000000000000222 ) ;
#284 = ORIENTED_EDGE ( 'NONE', *, *, #182, .F. ) ;
#285 = PRODUCT_DEFINITION ( 'NEZNÁMÝ', '', #137, #20 ) ;
#286 = VERTEX_POINT ( 'NONE', #257 ) ;
#287 = VERTEX_POINT ( 'NONE', #46 ) ;
#288 = ORIENTED_EDGE ( 'NONE', *, *, #235, .F. ) ;
#289 = DIRECTION ( 'NONE',  ( 1.000000000000000000, 0.000000000000000000, -0.000000000000000000 ) ) ;
#290 = CARTESIAN_POINT ( 'NONE',  ( 0.000000000000000000, 0.000000000000000000, 101.5000000000000000 ) ) ;
#291 = DIRECTION ( 'NONE',  ( 0.000000000000000000, 0.000000000000000000, 1.000000000000000000 ) ) ;
#292 = EDGE_LOOP ( 'NONE', ( #216, #116, #139, #303 ) ) ;
#293 = EDGE_CURVE ( 'NONE', #44, #94, #57, .T. ) ;
#294 = CARTESIAN_POINT ( 'NONE',  ( 0.000000000000000000, 0.000000000000000000, 1.700000000000007061 ) ) ;
#295 = AXIS2_PLACEMENT_3D ( 'NONE', #123, #101, #221 ) ;
#296 = CYLINDRICAL_SURFACE ( 'NONE', #104, 1.500000000000000222 ) ;
#297 = CC_DESIGN_SECURITY_CLASSIFICATION ( #237, ( #137 ) ) ;
#298 = APPROVAL_DATE_TIME ( #196, #240 ) ;
#299 = LINE ( 'NONE', #90, #2 ) ;
#300 = ADVANCED_FACE ( 'NONE', ( #164 ), #83, .T. ) ;
#301 = ORIENTED_EDGE ( 'NONE', *, *, #86, .F. ) ;
#302 = ORIENTED_EDGE ( 'NONE', *, *, #86, .T. ) ;
#303 = ORIENTED_EDGE ( 'NONE', *, *, #219, .T. ) ;
#304 = APPROVAL_PERSON_ORGANIZATION ( #228, #148, #59 ) ;
#305 = ORIENTED_EDGE ( 'NONE', *, *, #171, .T. ) ;
#306 = ADVANCED_FACE ( 'NONE', ( #62 ), #124, .F. ) ;
#307 = CARTESIAN_POINT ( 'NONE',  ( 1.500000000000000222, 1.836970198721030181E-16, 0.000000000000000000 ) ) ;
ENDSEC;
END-ISO-10303-21;
