ISO-10303-21;
HEADER;
FILE_DESCRIPTION (( 'STEP AP203' ),
    '1' );
FILE_NAME ('a2fe.STEP',
    '2022-06-20T10:18:48',
    ( '' ),
    ( '' ),
    'SwSTEP 2.0',
    'SolidWorks 2019',
    '' );
FILE_SCHEMA (( 'CONFIG_CONTROL_DESIGN' ));
ENDSEC;

DATA;
#1 =( NAMED_UNIT ( * ) PLANE_ANGLE_UNIT ( ) SI_UNIT ( $, .RADIAN. ) );
#2 = DIRECTION ( 'NONE',  ( -0.000000000000000000, -0.000000000000000000, -1.000000000000000000 ) ) ;
#3 = AXIS2_PLACEMENT_3D ( 'NONE', #208, #153, #275 ) ;
#4 = CC_DESIGN_APPROVAL ( #246, ( #122 ) ) ;
#5 = DIRECTION ( 'NONE',  ( 1.000000000000000000, 0.000000000000000000, 0.000000000000000000 ) ) ;
#6 = COORDINATED_UNIVERSAL_TIME_OFFSET ( 1, 0, .AHEAD. ) ;
#7 = APPROVAL_ROLE ( '' ) ;
#8 = TOROIDAL_SURFACE ( 'NONE', #31, 1.300000000000000266, 0.2000000000000000111 ) ;
#9 = DATE_TIME_ROLE ( 'classification_date' ) ;
#10 = CARTESIAN_POINT ( 'NONE',  ( 0.000000000000000000, 0.000000000000000000, 2.200000000000007283 ) ) ;
#11 = CC_DESIGN_PERSON_AND_ORGANIZATION_ASSIGNMENT ( #129, #59, ( #122 ) ) ;
#12 = CIRCLE ( 'NONE', #269, 2.000000000000000000 ) ;
#13 = CARTESIAN_POINT ( 'NONE',  ( 0.000000000000000000, 0.000000000000000000, 0.000000000000000000 ) ) ;
#14 = EDGE_LOOP ( 'NONE', ( #22, #83, #190, #63 ) ) ;
#15 = AXIS2_PLACEMENT_3D ( 'NONE', #176, #266, #170 ) ;
#16 = AXIS2_PLACEMENT_3D ( 'NONE', #242, #288, #26 ) ;
#17 = ORIENTED_EDGE ( 'NONE', *, *, #205, .T. ) ;
#18 = DIRECTION ( 'NONE',  ( 1.000000000000000000, 0.000000000000000000, 0.000000000000000000 ) ) ;
#19 = ORIENTED_EDGE ( 'NONE', *, *, #179, .T. ) ;
#20 = AXIS2_PLACEMENT_3D ( 'NONE', #74, #174, #261 ) ;
#21 = ORIENTED_EDGE ( 'NONE', *, *, #159, .F. ) ;
#22 = ORIENTED_EDGE ( 'NONE', *, *, #104, .F. ) ;
#23 = MANIFOLD_SOLID_BREP ( 'Zaoblit1', #138 ) ;
#24 = ADVANCED_FACE ( 'NONE', ( #117, #217 ), #92, .T. ) ;
#25 = CARTESIAN_POINT ( 'NONE',  ( 1.100000000000000089, 1.347111479062088503E-16, 252.0000000000000000 ) ) ;
#26 = DIRECTION ( 'NONE',  ( -1.000000000000000000, 0.000000000000000000, 0.000000000000000000 ) ) ;
#27 = DIRECTION ( 'NONE',  ( 0.000000000000000000, 0.000000000000000000, 1.000000000000000000 ) ) ;
#28 = CARTESIAN_POINT ( 'NONE',  ( -1.300000000000000266, 1.592040838891559342E-16, 2.200000000000007283 ) ) ;
#29 = PERSON_AND_ORGANIZATION_ROLE ( 'design_supplier' ) ;
#30 = DIRECTION ( 'NONE',  ( 1.000000000000000000, 0.000000000000000000, 0.000000000000000000 ) ) ;
#31 = AXIS2_PLACEMENT_3D ( 'NONE', #10, #34, #127 ) ;
#32 = LOCAL_TIME ( 12, 18, 48.00000000000000000, #155 ) ;
#33 = PERSON_AND_ORGANIZATION ( #150, #201 ) ;
#34 = DIRECTION ( 'NONE',  ( 0.000000000000000000, 0.000000000000000000, 1.000000000000000000 ) ) ;
#35 = APPROVAL_STATUS ( 'not_yet_approved' ) ;
#36 = ADVANCED_FACE ( 'NONE', ( #101 ), #286, .F. ) ;
#37 = COORDINATED_UNIVERSAL_TIME_OFFSET ( 1, 0, .AHEAD. ) ;
#38 = PERSON_AND_ORGANIZATION ( #150, #201 ) ;
#39 = CC_DESIGN_PERSON_AND_ORGANIZATION_ASSIGNMENT ( #249, #29, ( #48 ) ) ;
#40 = CARTESIAN_POINT ( 'NONE',  ( 0.000000000000000000, 0.000000000000000000, 2.000000000000000000 ) ) ;
#41 = EDGE_LOOP ( 'NONE', ( #234, #216, #281, #214 ) ) ;
#42 = AXIS2_PLACEMENT_3D ( 'NONE', #130, #273, #30 ) ;
#43 = DIRECTION ( 'NONE',  ( 0.000000000000000000, -1.000000000000000000, 0.000000000000000000 ) ) ;
#44 = DIRECTION ( 'NONE',  ( 0.000000000000000000, 0.000000000000000000, 1.000000000000000000 ) ) ;
#45 = CC_DESIGN_PERSON_AND_ORGANIZATION_ASSIGNMENT ( #38, #223, ( #124 ) ) ;
#46 = FACE_OUTER_BOUND ( 'NONE', #165, .T. ) ;
#47 = ORIENTED_EDGE ( 'NONE', *, *, #215, .T. ) ;
#48 = PRODUCT_DEFINITION_FORMATION_WITH_SPECIFIED_SOURCE ( 'LIBOVOLNÝ', '', #124, .NOT_KNOWN. ) ;
#49 = CC_DESIGN_DATE_AND_TIME_ASSIGNMENT ( #175, #227, ( #122 ) ) ;
#50 = CARTESIAN_POINT ( 'NONE',  ( 0.000000000000000000, 0.000000000000000000, 2.200000000000007283 ) ) ;
#51 = VECTOR ( 'NONE', #255, 1000.000000000000000 ) ;
#52 = PLANE ( 'NONE',  #128 ) ;
#53 = LOCAL_TIME ( 12, 18, 48.00000000000000000, #82 ) ;
#54 = ADVANCED_FACE ( 'NONE', ( #79 ), #240, .T. ) ;
#55 = APPROVAL_ROLE ( '' ) ;
#56 = LINE ( 'NONE', #25, #285 ) ;
#57 = CIRCLE ( 'NONE', #135, 2.000000000000000000 ) ;
#58 = VECTOR ( 'NONE', #2, 1000.000000000000000 ) ;
#59 = PERSON_AND_ORGANIZATION_ROLE ( 'creator' ) ;
#60 = LOCAL_TIME ( 12, 18, 48.00000000000000000, #37 ) ;
#61 = CYLINDRICAL_SURFACE ( 'NONE', #197, 2.000000000000000000 ) ;
#62 = EDGE_LOOP ( 'NONE', ( #298, #19 ) ) ;
#63 = ORIENTED_EDGE ( 'NONE', *, *, #215, .F. ) ;
#64 = CC_DESIGN_PERSON_AND_ORGANIZATION_ASSIGNMENT ( #291, #151, ( #48 ) ) ;
#65 = CARTESIAN_POINT ( 'NONE',  ( 0.000000000000000000, 0.000000000000000000, 2.000000000000000000 ) ) ;
#66 = ORIENTED_EDGE ( 'NONE', *, *, #104, .T. ) ;
#67 = DIRECTION ( 'NONE',  ( 1.000000000000000000, 0.000000000000000000, 0.000000000000000000 ) ) ;
#68 = ORIENTED_EDGE ( 'NONE', *, *, #85, .T. ) ;
#69 = DIRECTION ( 'NONE',  ( -0.000000000000000000, -0.000000000000000000, -1.000000000000000000 ) ) ;
#70 = VERTEX_POINT ( 'NONE', #75 ) ;
#71 = EDGE_CURVE ( 'NONE', #142, #254, #56, .T. ) ;
#72 = APPLICATION_PROTOCOL_DEFINITION ( 'international standard', 'config_control_design', 1994, #173 ) ;
#73 = FACE_OUTER_BOUND ( 'NONE', #283, .T. ) ;
#74 = CARTESIAN_POINT ( 'NONE',  ( 0.000000000000000000, 0.000000000000000000, 0.000000000000000000 ) ) ;
#75 = CARTESIAN_POINT ( 'NONE',  ( -2.000000000000000000, 0.000000000000000000, 0.000000000000000000 ) ) ;
#76 =( GEOMETRIC_REPRESENTATION_CONTEXT ( 3 ) GLOBAL_UNCERTAINTY_ASSIGNED_CONTEXT ( ( #109 ) ) GLOBAL_UNIT_ASSIGNED_CONTEXT ( ( #120, #1, #123 ) ) REPRESENTATION_CONTEXT ( 'NONE', 'WORKASPACE' ) );
#77 = VERTEX_POINT ( 'NONE', #264 ) ;
#78 = COORDINATED_UNIVERSAL_TIME_OFFSET ( 1, 0, .AHEAD. ) ;
#79 = FACE_OUTER_BOUND ( 'NONE', #86, .T. ) ;
#80 = APPLICATION_PROTOCOL_DEFINITION ( 'international standard', 'config_control_design', 1994, #202 ) ;
#81 = CIRCLE ( 'NONE', #156, 0.2000000000000000944 ) ;
#82 = COORDINATED_UNIVERSAL_TIME_OFFSET ( 1, 0, .AHEAD. ) ;
#83 = ORIENTED_EDGE ( 'NONE', *, *, #85, .F. ) ;
#84 = PERSON_AND_ORGANIZATION ( #150, #201 ) ;
#85 = EDGE_CURVE ( 'NONE', #254, #232, #97, .T. ) ;
#86 = EDGE_LOOP ( 'NONE', ( #163, #259, #17, #193 ) ) ;
#87 = DIRECTION ( 'NONE',  ( 0.000000000000000000, 0.000000000000000000, 1.000000000000000000 ) ) ;
#88 = EDGE_LOOP ( 'NONE', ( #307, #66, #186, #304 ) ) ;
#89 = VECTOR ( 'NONE', #189, 1000.000000000000000 ) ;
#90 = EDGE_LOOP ( 'NONE', ( #181, #47 ) ) ;
#91 = ADVANCED_FACE ( 'NONE', ( #222 ), #147, .T. ) ;
#92 = PLANE ( 'NONE',  #171 ) ;
#93 = ADVANCED_BREP_SHAPE_REPRESENTATION ( 'a2fe', ( #23, #20 ), #76 ) ;
#94 = CARTESIAN_POINT ( 'NONE',  ( -1.100000000000000089, 0.000000000000000000, 252.0000000000000000 ) ) ;
#95 = AXIS2_PLACEMENT_3D ( 'NONE', #233, #87, #282 ) ;
#96 = DIRECTION ( 'NONE',  ( 0.000000000000000000, 0.000000000000000000, 1.000000000000000000 ) ) ;
#97 = CIRCLE ( 'NONE', #158, 1.100000000000000089 ) ;
#98 = ADVANCED_FACE ( 'NONE', ( #73 ), #52, .T. ) ;
#99 = DIRECTION ( 'NONE',  ( 1.000000000000000000, 0.000000000000000000, -0.000000000000000000 ) ) ;
#100 = LOCAL_TIME ( 12, 18, 48.00000000000000000, #78 ) ;
#101 = FACE_OUTER_BOUND ( 'NONE', #88, .T. ) ;
#102 = CC_DESIGN_APPROVAL ( #229, ( #48 ) ) ;
#103 = FACE_OUTER_BOUND ( 'NONE', #302, .T. ) ;
#104 = EDGE_CURVE ( 'NONE', #232, #77, #199, .T. ) ;
#105 = AXIS2_PLACEMENT_3D ( 'NONE', #247, #250, #297 ) ;
#106 = CARTESIAN_POINT ( 'NONE',  ( 0.000000000000000000, 0.000000000000000000, 0.000000000000000000 ) ) ;
#107 = APPROVAL_STATUS ( 'not_yet_approved' ) ;
#108 = CIRCLE ( 'NONE', #111, 1.300000000000000266 ) ;
#109 = UNCERTAINTY_MEASURE_WITH_UNIT (LENGTH_MEASURE( 1.000000000000000082E-05 ), #120, 'distance_accuracy_value', 'NONE');
#110 = CALENDAR_DATE ( 2022, 20, 6 ) ;
#111 = AXIS2_PLACEMENT_3D ( 'NONE', #40, #230, #192 ) ;
#112 = DIRECTION ( 'NONE',  ( 0.000000000000000000, 0.000000000000000000, 1.000000000000000000 ) ) ;
#113 = CARTESIAN_POINT ( 'NONE',  ( -1.100000000000000089, 0.000000000000000000, 252.0000000000000000 ) ) ;
#114 = ORIENTED_EDGE ( 'NONE', *, *, #205, .F. ) ;
#115 = AXIS2_PLACEMENT_3D ( 'NONE', #106, #44, #212 ) ;
#116 = DIRECTION ( 'NONE',  ( -0.000000000000000000, -0.000000000000000000, -1.000000000000000000 ) ) ;
#117 = FACE_BOUND ( 'NONE', #90, .T. ) ;
#118 = CIRCLE ( 'NONE', #105, 1.100000000000000089 ) ;
#119 = LINE ( 'NONE', #219, #58 ) ;
#120 =( LENGTH_UNIT ( ) NAMED_UNIT ( * ) SI_UNIT ( .MILLI., .METRE. ) );
#121 = CIRCLE ( 'NONE', #144, 2.000000000000000000 ) ;
#122 = PRODUCT_DEFINITION ( 'NEZNÁMÝ', '', #48, #251 ) ;
#123 =( NAMED_UNIT ( * ) SI_UNIT ( $, .STERADIAN. ) SOLID_ANGLE_UNIT ( ) );
#124 = PRODUCT ( 'a2fe', 'a2fe', '', ( #218 ) ) ;
#125 = EDGE_CURVE ( 'NONE', #305, #168, #119, .T. ) ;
#126 = PERSON_AND_ORGANIZATION_ROLE ( 'classification_officer' ) ;
#127 = DIRECTION ( 'NONE',  ( 1.000000000000000000, 0.000000000000000000, 0.000000000000000000 ) ) ;
#128 = AXIS2_PLACEMENT_3D ( 'NONE', #146, #27, #99 ) ;
#129 = PERSON_AND_ORGANIZATION ( #150, #201 ) ;
#130 = CARTESIAN_POINT ( 'NONE',  ( 0.000000000000000000, 0.000000000000000000, 252.0000000000000000 ) ) ;
#131 = SECURITY_CLASSIFICATION_LEVEL ( 'unclassified' ) ;
#132 = DATE_AND_TIME ( #182, #60 ) ;
#133 = APPROVAL ( #35, 'NEURÈENÝ' ) ;
#134 = DIRECTION ( 'NONE',  ( 0.000000000000000000, 0.000000000000000000, 1.000000000000000000 ) ) ;
#135 = AXIS2_PLACEMENT_3D ( 'NONE', #13, #112, #67 ) ;
#136 = DIRECTION ( 'NONE',  ( 0.000000000000000000, 0.000000000000000000, -1.000000000000000000 ) ) ;
#137 = VERTEX_POINT ( 'NONE', #94 ) ;
#138 = CLOSED_SHELL ( 'NONE', ( #36, #91, #243, #267, #24, #185, #54, #98, #177 ) ) ;
#139 = DIRECTION ( 'NONE',  ( -1.000000000000000000, 0.000000000000000000, 0.000000000000000000 ) ) ;
#140 = LINE ( 'NONE', #162, #51 ) ;
#141 = APPROVAL_PERSON_ORGANIZATION ( #148, #246, #7 ) ;
#142 = VERTEX_POINT ( 'NONE', #295 ) ;
#143 = DIRECTION ( 'NONE',  ( 1.000000000000000000, 0.000000000000000000, 0.000000000000000000 ) ) ;
#144 = AXIS2_PLACEMENT_3D ( 'NONE', #65, #187, #166 ) ;
#145 = SECURITY_CLASSIFICATION ( '', '', #131 ) ;
#146 = CARTESIAN_POINT ( 'NONE',  ( 0.000000000000000000, 0.000000000000000000, 252.0000000000000000 ) ) ;
#147 = CYLINDRICAL_SURFACE ( 'NONE', #16, 1.100000000000000089 ) ;
#148 = PERSON_AND_ORGANIZATION ( #150, #201 ) ;
#149 = DIRECTION ( 'NONE',  ( 0.000000000000000000, 0.000000000000000000, 1.000000000000000000 ) ) ;
#150 = PERSON ( 'NEURÈENÝ', 'NEURÈENÝ', 'NEURÈENÝ', ('NEURÈENÝ'), ('NEURÈENÝ'), ('NEURÈENÝ') ) ;
#151 = PERSON_AND_ORGANIZATION_ROLE ( 'creator' ) ;
#152 = APPROVAL_DATE_TIME ( #207, #133 ) ;
#153 = DIRECTION ( 'NONE',  ( 0.000000000000000000, 0.000000000000000000, 1.000000000000000000 ) ) ;
#154 = EDGE_CURVE ( 'NONE', #232, #254, #118, .T. ) ;
#155 = COORDINATED_UNIVERSAL_TIME_OFFSET ( 1, 0, .AHEAD. ) ;
#156 = AXIS2_PLACEMENT_3D ( 'NONE', #238, #43, #136 ) ;
#157 = CARTESIAN_POINT ( 'NONE',  ( 1.300000000000000266, 0.000000000000000000, 2.000000000000003553 ) ) ;
#158 = AXIS2_PLACEMENT_3D ( 'NONE', #198, #149, #245 ) ;
#159 = EDGE_CURVE ( 'NONE', #168, #70, #300, .T. ) ;
#160 = CARTESIAN_POINT ( 'NONE',  ( 0.000000000000000000, 0.000000000000000000, 2.000000000000000000 ) ) ;
#161 = VERTEX_POINT ( 'NONE', #157 ) ;
#162 = CARTESIAN_POINT ( 'NONE',  ( -2.000000000000000000, 0.000000000000000000, 2.000000000000000000 ) ) ;
#163 = ORIENTED_EDGE ( 'NONE', *, *, #71, .F. ) ;
#164 = CARTESIAN_POINT ( 'NONE',  ( 2.000000000000000000, 2.449293598294706414E-16, 2.000000000000000000 ) ) ;
#165 = EDGE_LOOP ( 'NONE', ( #167, #237, #239, #188 ) ) ;
#166 = DIRECTION ( 'NONE',  ( 1.000000000000000000, 0.000000000000000000, 0.000000000000000000 ) ) ;
#167 = ORIENTED_EDGE ( 'NONE', *, *, #125, .F. ) ;
#168 = VERTEX_POINT ( 'NONE', #183 ) ;
#169 = CC_DESIGN_APPROVAL ( #133, ( #145 ) ) ;
#170 = DIRECTION ( 'NONE',  ( -1.000000000000000000, 0.000000000000000000, 0.000000000000000000 ) ) ;
#171 = AXIS2_PLACEMENT_3D ( 'NONE', #195, #134, #263 ) ;
#172 = EDGE_CURVE ( 'NONE', #137, #142, #204, .T. ) ;
#173 = APPLICATION_CONTEXT ( 'configuration controlled 3d designs of mechanical parts and assemblies' ) ;
#174 = DIRECTION ( 'NONE',  ( 0.000000000000000000, 0.000000000000000000, 1.000000000000000000 ) ) ;
#175 = DATE_AND_TIME ( #110, #100 ) ;
#176 = CARTESIAN_POINT ( 'NONE',  ( 0.000000000000000000, 0.000000000000000000, 252.0000000000000000 ) ) ;
#177 = ADVANCED_FACE ( 'NONE', ( #292 ), #8, .F. ) ;
#178 = PERSON_AND_ORGANIZATION ( #150, #201 ) ;
#179 = EDGE_CURVE ( 'NONE', #305, #256, #12, .T. ) ;
#180 = APPROVAL_STATUS ( 'not_yet_approved' ) ;
#181 = ORIENTED_EDGE ( 'NONE', *, *, #262, .T. ) ;
#182 = CALENDAR_DATE ( 2022, 20, 6 ) ;
#183 = CARTESIAN_POINT ( 'NONE',  ( 2.000000000000000000, 2.449293598294706414E-16, 0.000000000000000000 ) ) ;
#184 = LOCAL_TIME ( 12, 18, 48.00000000000000000, #6 ) ;
#185 = ADVANCED_FACE ( 'NONE', ( #103 ), #268, .F. ) ;
#186 = ORIENTED_EDGE ( 'NONE', *, *, #262, .F. ) ;
#187 = DIRECTION ( 'NONE',  ( 0.000000000000000000, 0.000000000000000000, 1.000000000000000000 ) ) ;
#188 = ORIENTED_EDGE ( 'NONE', *, *, #284, .T. ) ;
#189 = DIRECTION ( 'NONE',  ( -0.000000000000000000, -0.000000000000000000, -1.000000000000000000 ) ) ;
#190 = ORIENTED_EDGE ( 'NONE', *, *, #299, .T. ) ;
#191 = EDGE_CURVE ( 'NONE', #142, #137, #290, .T. ) ;
#192 = DIRECTION ( 'NONE',  ( 1.000000000000000000, 0.000000000000000000, 0.000000000000000000 ) ) ;
#193 = ORIENTED_EDGE ( 'NONE', *, *, #154, .T. ) ;
#194 = FACE_OUTER_BOUND ( 'NONE', #41, .T. ) ;
#195 = CARTESIAN_POINT ( 'NONE',  ( 0.000000000000000000, 0.000000000000000000, 2.000000000000000000 ) ) ;
#196 = CC_DESIGN_DATE_AND_TIME_ASSIGNMENT ( #294, #9, ( #145 ) ) ;
#197 = AXIS2_PLACEMENT_3D ( 'NONE', #160, #69, #139 ) ;
#198 = CARTESIAN_POINT ( 'NONE',  ( 0.000000000000000000, 0.000000000000000000, 2.200000000000007283 ) ) ;
#199 = CIRCLE ( 'NONE', #265, 0.2000000000000000944 ) ;
#200 = DIRECTION ( 'NONE',  ( 1.224646799147353207E-16, 1.000000000000000000, -0.000000000000000000 ) ) ;
#201 = ORGANIZATION ( 'NEURÈENÝ', 'NEURÈENÝ', '' ) ;
#202 = APPLICATION_CONTEXT ( 'configuration controlled 3d designs of mechanical parts and assemblies' ) ;
#203 = APPROVAL_DATE_TIME ( #132, #246 ) ;
#204 = CIRCLE ( 'NONE', #42, 1.100000000000000089 ) ;
#205 = EDGE_CURVE ( 'NONE', #137, #232, #253, .T. ) ;
#206 = CALENDAR_DATE ( 2022, 20, 6 ) ;
#207 = DATE_AND_TIME ( #271, #53 ) ;
#208 = CARTESIAN_POINT ( 'NONE',  ( 0.000000000000000000, 0.000000000000000000, 0.000000000000000000 ) ) ;
#209 = CARTESIAN_POINT ( 'NONE',  ( -1.100000000000000089, 0.000000000000000000, 2.200000000000007283 ) ) ;
#210 = APPROVAL_PERSON_ORGANIZATION ( #84, #229, #55 ) ;
#211 = EDGE_LOOP ( 'NONE', ( #257, #260, #68, #114 ) ) ;
#212 = DIRECTION ( 'NONE',  ( 1.000000000000000000, 0.000000000000000000, -0.000000000000000000 ) ) ;
#213 = AXIS2_PLACEMENT_3D ( 'NONE', #50, #96, #143 ) ;
#214 = ORIENTED_EDGE ( 'NONE', *, *, #296, .F. ) ;
#215 = EDGE_CURVE ( 'NONE', #77, #161, #226, .T. ) ;
#216 = ORIENTED_EDGE ( 'NONE', *, *, #125, .T. ) ;
#217 = FACE_OUTER_BOUND ( 'NONE', #62, .T. ) ;
#218 = MECHANICAL_CONTEXT ( 'NONE', #173, 'mechanical' ) ;
#219 = CARTESIAN_POINT ( 'NONE',  ( 2.000000000000000000, 2.449293598294706414E-16, 2.000000000000000000 ) ) ;
#220 = DIRECTION ( 'NONE',  ( -0.000000000000000000, -0.000000000000000000, -1.000000000000000000 ) ) ;
#221 = AXIS2_PLACEMENT_3D ( 'NONE', #258, #116, #231 ) ;
#222 = FACE_OUTER_BOUND ( 'NONE', #211, .T. ) ;
#223 = PERSON_AND_ORGANIZATION_ROLE ( 'design_owner' ) ;
#224 = CARTESIAN_POINT ( 'NONE',  ( 0.000000000000000000, 0.000000000000000000, 2.000000000000000000 ) ) ;
#225 = APPROVAL_ROLE ( '' ) ;
#226 = CIRCLE ( 'NONE', #293, 1.300000000000000266 ) ;
#227 = DATE_TIME_ROLE ( 'creation_date' ) ;
#228 = DIRECTION ( 'NONE',  ( 0.000000000000000000, 0.000000000000000000, 1.000000000000000000 ) ) ;
#229 = APPROVAL ( #107, 'NEURÈENÝ' ) ;
#230 = DIRECTION ( 'NONE',  ( -0.000000000000000000, -0.000000000000000000, -1.000000000000000000 ) ) ;
#231 = DIRECTION ( 'NONE',  ( -1.000000000000000000, 0.000000000000000000, 0.000000000000000000 ) ) ;
#232 = VERTEX_POINT ( 'NONE', #209 ) ;
#233 = CARTESIAN_POINT ( 'NONE',  ( 0.000000000000000000, 0.000000000000000000, 252.0000000000000000 ) ) ;
#234 = ORIENTED_EDGE ( 'NONE', *, *, #179, .F. ) ;
#235 = CC_DESIGN_PERSON_AND_ORGANIZATION_ASSIGNMENT ( #33, #126, ( #145 ) ) ;
#236 = CARTESIAN_POINT ( 'NONE',  ( 0.000000000000000000, 0.000000000000000000, 2.000000000000000000 ) ) ;
#237 = ORIENTED_EDGE ( 'NONE', *, *, #287, .F. ) ;
#238 = CARTESIAN_POINT ( 'NONE',  ( 1.300000000000000266, 0.000000000000000000, 2.200000000000007283 ) ) ;
#239 = ORIENTED_EDGE ( 'NONE', *, *, #296, .T. ) ;
#240 = CYLINDRICAL_SURFACE ( 'NONE', #15, 1.100000000000000089 ) ;
#241 = CC_DESIGN_SECURITY_CLASSIFICATION ( #145, ( #48 ) ) ;
#242 = CARTESIAN_POINT ( 'NONE',  ( 0.000000000000000000, 0.000000000000000000, 252.0000000000000000 ) ) ;
#243 = ADVANCED_FACE ( 'NONE', ( #194 ), #61, .T. ) ;
#244 = DATE_AND_TIME ( #272, #32 ) ;
#245 = DIRECTION ( 'NONE',  ( 1.000000000000000000, 0.000000000000000000, 0.000000000000000000 ) ) ;
#246 = APPROVAL ( #180, 'NEURÈENÝ' ) ;
#247 = CARTESIAN_POINT ( 'NONE',  ( 0.000000000000000000, 0.000000000000000000, 2.200000000000007283 ) ) ;
#248 = APPROVAL_DATE_TIME ( #244, #229 ) ;
#249 = PERSON_AND_ORGANIZATION ( #150, #201 ) ;
#250 = DIRECTION ( 'NONE',  ( 0.000000000000000000, 0.000000000000000000, 1.000000000000000000 ) ) ;
#251 = DESIGN_CONTEXT ( 'detailed design', #202, 'design' ) ;
#252 = CARTESIAN_POINT ( 'NONE',  ( 1.100000000000000089, 1.347111479062088503E-16, 2.200000000000007283 ) ) ;
#253 = LINE ( 'NONE', #113, #89 ) ;
#254 = VERTEX_POINT ( 'NONE', #252 ) ;
#255 = DIRECTION ( 'NONE',  ( -0.000000000000000000, -0.000000000000000000, -1.000000000000000000 ) ) ;
#256 = VERTEX_POINT ( 'NONE', #303 ) ;
#257 = ORIENTED_EDGE ( 'NONE', *, *, #191, .F. ) ;
#258 = CARTESIAN_POINT ( 'NONE',  ( 0.000000000000000000, 0.000000000000000000, 2.000000000000000000 ) ) ;
#259 = ORIENTED_EDGE ( 'NONE', *, *, #172, .F. ) ;
#260 = ORIENTED_EDGE ( 'NONE', *, *, #71, .T. ) ;
#261 = DIRECTION ( 'NONE',  ( 1.000000000000000000, 0.000000000000000000, 0.000000000000000000 ) ) ;
#262 = EDGE_CURVE ( 'NONE', #161, #77, #108, .T. ) ;
#263 = DIRECTION ( 'NONE',  ( 1.000000000000000000, 0.000000000000000000, -0.000000000000000000 ) ) ;
#264 = CARTESIAN_POINT ( 'NONE',  ( -1.300000000000000266, 1.592040838891559342E-16, 2.000000000000003553 ) ) ;
#265 = AXIS2_PLACEMENT_3D ( 'NONE', #28, #200, #289 ) ;
#266 = DIRECTION ( 'NONE',  ( -0.000000000000000000, -0.000000000000000000, -1.000000000000000000 ) ) ;
#267 = ADVANCED_FACE ( 'NONE', ( #46 ), #301, .T. ) ;
#268 = PLANE ( 'NONE',  #115 ) ;
#269 = AXIS2_PLACEMENT_3D ( 'NONE', #224, #228, #5 ) ;
#270 = SHAPE_DEFINITION_REPRESENTATION ( #274, #93 ) ;
#271 = CALENDAR_DATE ( 2022, 20, 6 ) ;
#272 = CALENDAR_DATE ( 2022, 20, 6 ) ;
#273 = DIRECTION ( 'NONE',  ( 0.000000000000000000, 0.000000000000000000, 1.000000000000000000 ) ) ;
#274 = PRODUCT_DEFINITION_SHAPE ( 'NONE', 'NONE',  #122 ) ;
#275 = DIRECTION ( 'NONE',  ( 1.000000000000000000, 0.000000000000000000, 0.000000000000000000 ) ) ;
#276 = ORIENTED_EDGE ( 'NONE', *, *, #284, .F. ) ;
#277 = PRODUCT_RELATED_PRODUCT_CATEGORY ( 'detail', '', ( #124 ) ) ;
#278 = ORIENTED_EDGE ( 'NONE', *, *, #191, .T. ) ;
#279 = APPROVAL_PERSON_ORGANIZATION ( #178, #133, #225 ) ;
#280 = ORIENTED_EDGE ( 'NONE', *, *, #172, .T. ) ;
#281 = ORIENTED_EDGE ( 'NONE', *, *, #159, .T. ) ;
#282 = DIRECTION ( 'NONE',  ( 1.000000000000000000, 0.000000000000000000, 0.000000000000000000 ) ) ;
#283 = EDGE_LOOP ( 'NONE', ( #280, #278 ) ) ;
#284 = EDGE_CURVE ( 'NONE', #70, #168, #57, .T. ) ;
#285 = VECTOR ( 'NONE', #220, 1000.000000000000000 ) ;
#286 = TOROIDAL_SURFACE ( 'NONE', #213, 1.300000000000000266, 0.2000000000000000111 ) ;
#287 = EDGE_CURVE ( 'NONE', #256, #305, #121, .T. ) ;
#288 = DIRECTION ( 'NONE',  ( -0.000000000000000000, -0.000000000000000000, -1.000000000000000000 ) ) ;
#289 = DIRECTION ( 'NONE',  ( -1.000000000000000000, 1.224646799147353207E-16, 0.000000000000000000 ) ) ;
#290 = CIRCLE ( 'NONE', #95, 1.100000000000000089 ) ;
#291 = PERSON_AND_ORGANIZATION ( #150, #201 ) ;
#292 = FACE_OUTER_BOUND ( 'NONE', #14, .T. ) ;
#293 = AXIS2_PLACEMENT_3D ( 'NONE', #236, #306, #18 ) ;
#294 = DATE_AND_TIME ( #206, #184 ) ;
#295 = CARTESIAN_POINT ( 'NONE',  ( 1.100000000000000089, 1.347111479062088503E-16, 252.0000000000000000 ) ) ;
#296 = EDGE_CURVE ( 'NONE', #256, #70, #140, .T. ) ;
#297 = DIRECTION ( 'NONE',  ( 1.000000000000000000, 0.000000000000000000, 0.000000000000000000 ) ) ;
#298 = ORIENTED_EDGE ( 'NONE', *, *, #287, .T. ) ;
#299 = EDGE_CURVE ( 'NONE', #254, #161, #81, .T. ) ;
#300 = CIRCLE ( 'NONE', #3, 2.000000000000000000 ) ;
#301 = CYLINDRICAL_SURFACE ( 'NONE', #221, 2.000000000000000000 ) ;
#302 = EDGE_LOOP ( 'NONE', ( #276, #21 ) ) ;
#303 = CARTESIAN_POINT ( 'NONE',  ( -2.000000000000000000, 0.000000000000000000, 2.000000000000000000 ) ) ;
#304 = ORIENTED_EDGE ( 'NONE', *, *, #299, .F. ) ;
#305 = VERTEX_POINT ( 'NONE', #164 ) ;
#306 = DIRECTION ( 'NONE',  ( -0.000000000000000000, -0.000000000000000000, -1.000000000000000000 ) ) ;
#307 = ORIENTED_EDGE ( 'NONE', *, *, #154, .F. ) ;
ENDSEC;
END-ISO-10303-21;
