ISO-10303-21;
HEADER;
FILE_DESCRIPTION (( 'STEP AP203' ),
    '1' );
FILE_NAME ('62c2.STEP',
    '2022-06-20T09:47:42',
    ( '' ),
    ( '' ),
    'SwSTEP 2.0',
    'SolidWorks 2019',
    '' );
FILE_SCHEMA (( 'CONFIG_CONTROL_DESIGN' ));
ENDSEC;

DATA;
#1 = DIRECTION ( 'NONE',  ( 1.000000000000000000, 0.000000000000000000, 0.000000000000000000 ) ) ;
#2 = AXIS2_PLACEMENT_3D ( 'NONE', #223, #87, #184 ) ;
#3 = EDGE_CURVE ( 'NONE', #204, #61, #185, .T. ) ;
#4 = ADVANCED_FACE ( 'NONE', ( #11, #9 ), #83, .T. ) ;
#5 = DATE_AND_TIME ( #175, #236 ) ;
#6 = AXIS2_PLACEMENT_3D ( 'NONE', #201, #178, #267 ) ;
#7 = APPROVAL_STATUS ( 'not_yet_approved' ) ;
#8 = ORIENTED_EDGE ( 'NONE', *, *, #47, .T. ) ;
#9 = FACE_OUTER_BOUND ( 'NONE', #246, .T. ) ;
#10 = CC_DESIGN_APPROVAL ( #25, ( #147 ) ) ;
#11 = FACE_BOUND ( 'NONE', #16, .T. ) ;
#12 = CC_DESIGN_PERSON_AND_ORGANIZATION_ASSIGNMENT ( #128, #126, ( #147 ) ) ;
#13 = EDGE_LOOP ( 'NONE', ( #224, #32 ) ) ;
#14 = EDGE_LOOP ( 'NONE', ( #89, #38, #297, #220 ) ) ;
#15 = ORIENTED_EDGE ( 'NONE', *, *, #47, .F. ) ;
#16 = EDGE_LOOP ( 'NONE', ( #64, #8 ) ) ;
#17 = DIRECTION ( 'NONE',  ( 0.000000000000000000, 0.000000000000000000, 1.000000000000000000 ) ) ;
#18 = DIRECTION ( 'NONE',  ( -1.000000000000000000, 0.000000000000000000, 0.000000000000000000 ) ) ;
#19 = CYLINDRICAL_SURFACE ( 'NONE', #152, 7.000000000000000000 ) ;
#20 = DIRECTION ( 'NONE',  ( 0.000000000000000000, 0.000000000000000000, 1.000000000000000000 ) ) ;
#21 = CC_DESIGN_DATE_AND_TIME_ASSIGNMENT ( #74, #172, ( #143 ) ) ;
#22 = DIRECTION ( 'NONE',  ( 0.000000000000000000, 0.000000000000000000, 1.000000000000000000 ) ) ;
#23 = DATE_AND_TIME ( #261, #72 ) ;
#24 = PERSON_AND_ORGANIZATION_ROLE ( 'creator' ) ;
#25 = APPROVAL ( #52, 'NEURÈENÝ' ) ;
#26 = COORDINATED_UNIVERSAL_TIME_OFFSET ( 1, 0, .AHEAD. ) ;
#27 = PERSON_AND_ORGANIZATION_ROLE ( 'creator' ) ;
#28 = PERSON_AND_ORGANIZATION ( #287, #121 ) ;
#29 = AXIS2_PLACEMENT_3D ( 'NONE', #282, #229, #111 ) ;
#30 = AXIS2_PLACEMENT_3D ( 'NONE', #65, #164, #1 ) ;
#31 = DIRECTION ( 'NONE',  ( 1.000000000000000000, 0.000000000000000000, 0.000000000000000000 ) ) ;
#32 = ORIENTED_EDGE ( 'NONE', *, *, #75, .T. ) ;
#33 = CLOSED_SHELL ( 'NONE', ( #113, #241, #186, #251, #4, #266, #165, #151, #102 ) ) ;
#34 = ORIENTED_EDGE ( 'NONE', *, *, #179, .T. ) ;
#35 = AXIS2_PLACEMENT_3D ( 'NONE', #44, #209, #18 ) ;
#36 = DIRECTION ( 'NONE',  ( -0.000000000000000000, -0.000000000000000000, -1.000000000000000000 ) ) ;
#37 = CARTESIAN_POINT ( 'NONE',  ( -4.000000000000000000, 0.000000000000000000, 1204.999999999999773 ) ) ;
#38 = ORIENTED_EDGE ( 'NONE', *, *, #92, .T. ) ;
#39 = CARTESIAN_POINT ( 'NONE',  ( 0.000000000000000000, 0.000000000000000000, 5.200000000000093436 ) ) ;
#40 = AXIS2_PLACEMENT_3D ( 'NONE', #39, #70, #112 ) ;
#41 = AXIS2_PLACEMENT_3D ( 'NONE', #256, #233, #63 ) ;
#42 = DIRECTION ( 'NONE',  ( 0.000000000000000000, 0.000000000000000000, 1.000000000000000000 ) ) ;
#43 = FACE_OUTER_BOUND ( 'NONE', #295, .T. ) ;
#44 = CARTESIAN_POINT ( 'NONE',  ( 0.000000000000000000, 0.000000000000000000, 5.000000000000000000 ) ) ;
#45 = CC_DESIGN_APPROVAL ( #231, ( #54 ) ) ;
#46 = CYLINDRICAL_SURFACE ( 'NONE', #299, 4.000000000000000000 ) ;
#47 = EDGE_CURVE ( 'NONE', #153, #158, #66, .T. ) ;
#48 = APPROVAL_ROLE ( '' ) ;
#49 = EDGE_CURVE ( 'NONE', #158, #153, #86, .T. ) ;
#50 = PERSON_AND_ORGANIZATION ( #287, #121 ) ;
#51 = LOCAL_TIME ( 11, 47, 42.00000000000000000, #79 ) ;
#52 = APPROVAL_STATUS ( 'not_yet_approved' ) ;
#53 = EDGE_CURVE ( 'NONE', #182, #159, #269, .T. ) ;
#54 = PRODUCT_DEFINITION ( 'NEZNÁMÝ', '', #147, #273 ) ;
#55 = VECTOR ( 'NONE', #36, 1000.000000000000000 ) ;
#56 = LINE ( 'NONE', #59, #177 ) ;
#57 = CC_DESIGN_PERSON_AND_ORGANIZATION_ASSIGNMENT ( #50, #24, ( #54 ) ) ;
#58 = FACE_OUTER_BOUND ( 'NONE', #302, .T. ) ;
#59 = CARTESIAN_POINT ( 'NONE',  ( 4.000000000000000000, 4.898587196589412829E-16, 1204.999999999999773 ) ) ;
#60 = DIRECTION ( 'NONE',  ( 1.000000000000000000, 0.000000000000000000, 0.000000000000000000 ) ) ;
#61 = VERTEX_POINT ( 'NONE', #107 ) ;
#62 = APPROVAL_STATUS ( 'not_yet_approved' ) ;
#63 = DIRECTION ( 'NONE',  ( -1.000000000000000000, 0.000000000000000000, 0.000000000000000000 ) ) ;
#64 = ORIENTED_EDGE ( 'NONE', *, *, #49, .T. ) ;
#65 = CARTESIAN_POINT ( 'NONE',  ( 0.000000000000000000, 0.000000000000000000, 1204.999999999999773 ) ) ;
#66 = CIRCLE ( 'NONE', #78, 4.200000000000000178 ) ;
#67 = AXIS2_PLACEMENT_3D ( 'NONE', #166, #160, #307 ) ;
#68 = DIRECTION ( 'NONE',  ( 1.000000000000000000, 0.000000000000000000, -0.000000000000000000 ) ) ;
#69 = CARTESIAN_POINT ( 'NONE',  ( -7.000000000000000000, 0.000000000000000000, 0.000000000000000000 ) ) ;
#70 = DIRECTION ( 'NONE',  ( 0.000000000000000000, 0.000000000000000000, 1.000000000000000000 ) ) ;
#71 = CIRCLE ( 'NONE', #257, 7.000000000000000000 ) ;
#72 = LOCAL_TIME ( 11, 47, 42.00000000000000000, #26 ) ;
#73 = SHAPE_DEFINITION_REPRESENTATION ( #279, #253 ) ;
#74 = DATE_AND_TIME ( #217, #221 ) ;
#75 = EDGE_CURVE ( 'NONE', #275, #204, #197, .T. ) ;
#76 = MECHANICAL_CONTEXT ( 'NONE', #167, 'mechanical' ) ;
#77 = DIRECTION ( 'NONE',  ( 0.000000000000000000, 0.000000000000000000, 1.000000000000000000 ) ) ;
#78 = AXIS2_PLACEMENT_3D ( 'NONE', #240, #200, #31 ) ;
#79 = COORDINATED_UNIVERSAL_TIME_OFFSET ( 1, 0, .AHEAD. ) ;
#80 = COORDINATED_UNIVERSAL_TIME_OFFSET ( 1, 0, .AHEAD. ) ;
#81 = AXIS2_PLACEMENT_3D ( 'NONE', #190, #42, #94 ) ;
#82 = CC_DESIGN_SECURITY_CLASSIFICATION ( #143, ( #147 ) ) ;
#83 = PLANE ( 'NONE',  #264 ) ;
#84 = ORIENTED_EDGE ( 'NONE', *, *, #106, .T. ) ;
#85 = CARTESIAN_POINT ( 'NONE',  ( 4.000000000000000000, 4.898587196589412829E-16, 5.200000000000093436 ) ) ;
#86 = CIRCLE ( 'NONE', #244, 4.200000000000000178 ) ;
#87 = DIRECTION ( 'NONE',  ( 0.000000000000000000, 0.000000000000000000, 1.000000000000000000 ) ) ;
#88 = VERTEX_POINT ( 'NONE', #85 ) ;
#89 = ORIENTED_EDGE ( 'NONE', *, *, #75, .F. ) ;
#90 = ORIENTED_EDGE ( 'NONE', *, *, #181, .F. ) ;
#91 = LINE ( 'NONE', #140, #183 ) ;
#92 = EDGE_CURVE ( 'NONE', #275, #88, #56, .T. ) ;
#93 = CARTESIAN_POINT ( 'NONE',  ( -7.000000000000000000, 0.000000000000000000, 5.000000000000000000 ) ) ;
#94 = DIRECTION ( 'NONE',  ( 1.000000000000000000, 0.000000000000000000, 0.000000000000000000 ) ) ;
#95 = CARTESIAN_POINT ( 'NONE',  ( 0.000000000000000000, 0.000000000000000000, 0.000000000000000000 ) ) ;
#96 = CYLINDRICAL_SURFACE ( 'NONE', #35, 7.000000000000000000 ) ;
#97 = CARTESIAN_POINT ( 'NONE',  ( 4.200000000000000178, 0.000000000000000000, 5.200000000000093436 ) ) ;
#98 = CALENDAR_DATE ( 2022, 20, 6 ) ;
#99 =( NAMED_UNIT ( * ) PLANE_ANGLE_UNIT ( ) SI_UNIT ( $, .RADIAN. ) );
#100 = CIRCLE ( 'NONE', #270, 7.000000000000000000 ) ;
#101 = PERSON_AND_ORGANIZATION_ROLE ( 'classification_officer' ) ;
#102 = ADVANCED_FACE ( 'NONE', ( #58 ), #292, .F. ) ;
#103 = DIRECTION ( 'NONE',  ( 1.000000000000000000, 0.000000000000000000, 0.000000000000000000 ) ) ;
#104 = UNCERTAINTY_MEASURE_WITH_UNIT (LENGTH_MEASURE( 1.000000000000000082E-05 ), #260, 'distance_accuracy_value', 'NONE');
#105 = CARTESIAN_POINT ( 'NONE',  ( 0.000000000000000000, 0.000000000000000000, 5.000000000000000000 ) ) ;
#106 = EDGE_CURVE ( 'NONE', #182, #129, #71, .T. ) ;
#107 = CARTESIAN_POINT ( 'NONE',  ( -4.000000000000000000, 0.000000000000000000, 5.200000000000093436 ) ) ;
#108 = VERTEX_POINT ( 'NONE', #255 ) ;
#109 = EDGE_LOOP ( 'NONE', ( #90, #34, #225, #187 ) ) ;
#110 = CIRCLE ( 'NONE', #285, 4.000000000000000000 ) ;
#111 = DIRECTION ( 'NONE',  ( 1.000000000000000000, 0.000000000000000000, 0.000000000000000000 ) ) ;
#112 = DIRECTION ( 'NONE',  ( 1.000000000000000000, 0.000000000000000000, 0.000000000000000000 ) ) ;
#113 = ADVANCED_FACE ( 'NONE', ( #205 ), #137, .F. ) ;
#114 = CARTESIAN_POINT ( 'NONE',  ( 0.000000000000000000, 0.000000000000000000, 5.000000000000000000 ) ) ;
#115 = VECTOR ( 'NONE', #199, 1000.000000000000000 ) ;
#116 = CARTESIAN_POINT ( 'NONE',  ( 0.000000000000000000, 0.000000000000000000, 0.000000000000000000 ) ) ;
#117 = MANIFOLD_SOLID_BREP ( 'Zaoblit1', #33 ) ;
#118 = APPROVAL_DATE_TIME ( #173, #304 ) ;
#119 = DIRECTION ( 'NONE',  ( -0.000000000000000000, -0.000000000000000000, -1.000000000000000000 ) ) ;
#120 = DIRECTION ( 'NONE',  ( 1.000000000000000000, 0.000000000000000000, 0.000000000000000000 ) ) ;
#121 = ORGANIZATION ( 'NEURÈENÝ', 'NEURÈENÝ', '' ) ;
#122 = APPROVAL_ROLE ( '' ) ;
#123 = DATE_AND_TIME ( #124, #51 ) ;
#124 = CALENDAR_DATE ( 2022, 20, 6 ) ;
#125 = CC_DESIGN_PERSON_AND_ORGANIZATION_ASSIGNMENT ( #28, #27, ( #147 ) ) ;
#126 = PERSON_AND_ORGANIZATION_ROLE ( 'design_supplier' ) ;
#127 = CIRCLE ( 'NONE', #81, 4.000000000000000000 ) ;
#128 = PERSON_AND_ORGANIZATION ( #287, #121 ) ;
#129 = VERTEX_POINT ( 'NONE', #306 ) ;
#130 = ORIENTED_EDGE ( 'NONE', *, *, #216, .F. ) ;
#131 = APPROVAL_PERSON_ORGANIZATION ( #238, #231, #48 ) ;
#132 = CARTESIAN_POINT ( 'NONE',  ( 0.000000000000000000, 0.000000000000000000, 5.000000000000000000 ) ) ;
#133 = CARTESIAN_POINT ( 'NONE',  ( 0.000000000000000000, 0.000000000000000000, 5.000000000000000000 ) ) ;
#134 = ORIENTED_EDGE ( 'NONE', *, *, #181, .T. ) ;
#135 = ORIENTED_EDGE ( 'NONE', *, *, #290, .F. ) ;
#136 = ORIENTED_EDGE ( 'NONE', *, *, #294, .T. ) ;
#137 = TOROIDAL_SURFACE ( 'NONE', #40, 4.200000000000000178, 0.2000000000000000111 ) ;
#138 = CARTESIAN_POINT ( 'NONE',  ( 0.000000000000000000, 0.000000000000000000, 1204.999999999999773 ) ) ;
#139 = CC_DESIGN_PERSON_AND_ORGANIZATION_ASSIGNMENT ( #145, #196, ( #226 ) ) ;
#140 = CARTESIAN_POINT ( 'NONE',  ( 7.000000000000000000, 8.572527594031473190E-16, 5.000000000000000000 ) ) ;
#141 = DIRECTION ( 'NONE',  ( 1.000000000000000000, 0.000000000000000000, 0.000000000000000000 ) ) ;
#142 = FACE_OUTER_BOUND ( 'NONE', #247, .T. ) ;
#143 = SECURITY_CLASSIFICATION ( '', '', #215 ) ;
#144 = FACE_OUTER_BOUND ( 'NONE', #109, .T. ) ;
#145 = PERSON_AND_ORGANIZATION ( #287, #121 ) ;
#146 = APPROVAL_DATE_TIME ( #23, #231 ) ;
#147 = PRODUCT_DEFINITION_FORMATION_WITH_SPECIFIED_SOURCE ( 'LIBOVOLNÝ', '', #226, .NOT_KNOWN. ) ;
#148 = PRODUCT_RELATED_PRODUCT_CATEGORY ( 'detail', '', ( #226 ) ) ;
#149 = APPROVAL_ROLE ( '' ) ;
#150 = DIRECTION ( 'NONE',  ( 0.000000000000000000, -1.000000000000000000, 0.000000000000000000 ) ) ;
#151 = ADVANCED_FACE ( 'NONE', ( #250 ), #169, .T. ) ;
#152 = AXIS2_PLACEMENT_3D ( 'NONE', #114, #119, #188 ) ;
#153 = VERTEX_POINT ( 'NONE', #193 ) ;
#154 = DIRECTION ( 'NONE',  ( -0.000000000000000000, -0.000000000000000000, -1.000000000000000000 ) ) ;
#155 = CARTESIAN_POINT ( 'NONE',  ( -7.000000000000000000, 0.000000000000000000, 5.000000000000000000 ) ) ;
#156 = EDGE_CURVE ( 'NONE', #61, #88, #127, .T. ) ;
#157 = ORIENTED_EDGE ( 'NONE', *, *, #3, .T. ) ;
#158 = VERTEX_POINT ( 'NONE', #230 ) ;
#159 = VERTEX_POINT ( 'NONE', #69 ) ;
#160 = DIRECTION ( 'NONE',  ( 1.224646799147353207E-16, 1.000000000000000000, -0.000000000000000000 ) ) ;
#161 = APPLICATION_CONTEXT ( 'configuration controlled 3d designs of mechanical parts and assemblies' ) ;
#162 = EDGE_LOOP ( 'NONE', ( #180, #249, #206, #242 ) ) ;
#163 = CIRCLE ( 'NONE', #265, 7.000000000000000000 ) ;
#164 = DIRECTION ( 'NONE',  ( 0.000000000000000000, 0.000000000000000000, 1.000000000000000000 ) ) ;
#165 = ADVANCED_FACE ( 'NONE', ( #43 ), #46, .T. ) ;
#166 = CARTESIAN_POINT ( 'NONE',  ( -4.200000000000000178, 5.143516556418882928E-16, 5.200000000000093436 ) ) ;
#167 = APPLICATION_CONTEXT ( 'configuration controlled 3d designs of mechanical parts and assemblies' ) ;
#168 = CYLINDRICAL_SURFACE ( 'NONE', #41, 4.000000000000000000 ) ;
#169 = PLANE ( 'NONE',  #211 ) ;
#170 = CIRCLE ( 'NONE', #29, 7.000000000000000000 ) ;
#171 = EDGE_CURVE ( 'NONE', #159, #108, #100, .T. ) ;
#172 = DATE_TIME_ROLE ( 'classification_date' ) ;
#173 = DATE_AND_TIME ( #98, #189 ) ;
#174 = DATE_TIME_ROLE ( 'creation_date' ) ;
#175 = CALENDAR_DATE ( 2022, 20, 6 ) ;
#176 = APPLICATION_PROTOCOL_DEFINITION ( 'international standard', 'config_control_design', 1994, #167 ) ;
#177 = VECTOR ( 'NONE', #154, 1000.000000000000000 ) ;
#178 = DIRECTION ( 'NONE',  ( 0.000000000000000000, 0.000000000000000000, 1.000000000000000000 ) ) ;
#179 = EDGE_CURVE ( 'NONE', #129, #108, #91, .T. ) ;
#180 = ORIENTED_EDGE ( 'NONE', *, *, #179, .F. ) ;
#181 = EDGE_CURVE ( 'NONE', #129, #182, #170, .T. ) ;
#182 = VERTEX_POINT ( 'NONE', #93 ) ;
#183 = VECTOR ( 'NONE', #305, 1000.000000000000000 ) ;
#184 = DIRECTION ( 'NONE',  ( 1.000000000000000000, 0.000000000000000000, 0.000000000000000000 ) ) ;
#185 = LINE ( 'NONE', #37, #55 ) ;
#186 = ADVANCED_FACE ( 'NONE', ( #144 ), #19, .T. ) ;
#187 = ORIENTED_EDGE ( 'NONE', *, *, #53, .F. ) ;
#188 = DIRECTION ( 'NONE',  ( -1.000000000000000000, 0.000000000000000000, 0.000000000000000000 ) ) ;
#189 = LOCAL_TIME ( 11, 47, 42.00000000000000000, #289 ) ;
#190 = CARTESIAN_POINT ( 'NONE',  ( 0.000000000000000000, 0.000000000000000000, 5.200000000000093436 ) ) ;
#191 = FACE_OUTER_BOUND ( 'NONE', #14, .T. ) ;
#192 = DIRECTION ( 'NONE',  ( 0.000000000000000000, 0.000000000000000000, 1.000000000000000000 ) ) ;
#193 = CARTESIAN_POINT ( 'NONE',  ( -4.200000000000000178, 5.143516556418882928E-16, 5.000000000000047073 ) ) ;
#194 = AXIS2_PLACEMENT_3D ( 'NONE', #281, #22, #68 ) ;
#195 = DIRECTION ( 'NONE',  ( 1.000000000000000000, 0.000000000000000000, 0.000000000000000000 ) ) ;
#196 = PERSON_AND_ORGANIZATION_ROLE ( 'design_owner' ) ;
#197 = CIRCLE ( 'NONE', #6, 4.000000000000000000 ) ;
#198 = CC_DESIGN_APPROVAL ( #304, ( #143 ) ) ;
#199 = DIRECTION ( 'NONE',  ( -0.000000000000000000, -0.000000000000000000, -1.000000000000000000 ) ) ;
#200 = DIRECTION ( 'NONE',  ( -0.000000000000000000, -0.000000000000000000, -1.000000000000000000 ) ) ;
#201 = CARTESIAN_POINT ( 'NONE',  ( 0.000000000000000000, 0.000000000000000000, 1204.999999999999773 ) ) ;
#202 = ORIENTED_EDGE ( 'NONE', *, *, #284, .F. ) ;
#203 = ORIENTED_EDGE ( 'NONE', *, *, #49, .F. ) ;
#204 = VERTEX_POINT ( 'NONE', #277 ) ;
#205 = FACE_OUTER_BOUND ( 'NONE', #276, .T. ) ;
#206 = ORIENTED_EDGE ( 'NONE', *, *, #53, .T. ) ;
#207 = PLANE ( 'NONE',  #194 ) ;
#208 =( GEOMETRIC_REPRESENTATION_CONTEXT ( 3 ) GLOBAL_UNCERTAINTY_ASSIGNED_CONTEXT ( ( #104 ) ) GLOBAL_UNIT_ASSIGNED_CONTEXT ( ( #260, #99, #286 ) ) REPRESENTATION_CONTEXT ( 'NONE', 'WORKASPACE' ) );
#209 = DIRECTION ( 'NONE',  ( -0.000000000000000000, -0.000000000000000000, -1.000000000000000000 ) ) ;
#210 = CARTESIAN_POINT ( 'NONE',  ( 4.000000000000000000, 4.898587196589412829E-16, 1204.999999999999773 ) ) ;
#211 = AXIS2_PLACEMENT_3D ( 'NONE', #138, #20, #228 ) ;
#212 = APPROVAL_PERSON_ORGANIZATION ( #274, #304, #122 ) ;
#213 = DIRECTION ( 'NONE',  ( 0.000000000000000000, 0.000000000000000000, 1.000000000000000000 ) ) ;
#214 = COORDINATED_UNIVERSAL_TIME_OFFSET ( 1, 0, .AHEAD. ) ;
#215 = SECURITY_CLASSIFICATION_LEVEL ( 'unclassified' ) ;
#216 = EDGE_CURVE ( 'NONE', #204, #275, #232, .T. ) ;
#217 = CALENDAR_DATE ( 2022, 20, 6 ) ;
#218 = DIRECTION ( 'NONE',  ( 1.000000000000000000, 0.000000000000000000, -0.000000000000000000 ) ) ;
#219 = CC_DESIGN_DATE_AND_TIME_ASSIGNMENT ( #123, #174, ( #54 ) ) ;
#220 = ORIENTED_EDGE ( 'NONE', *, *, #3, .F. ) ;
#221 = LOCAL_TIME ( 11, 47, 42.00000000000000000, #80 ) ;
#222 = ORIENTED_EDGE ( 'NONE', *, *, #294, .F. ) ;
#223 = CARTESIAN_POINT ( 'NONE',  ( 0.000000000000000000, 0.000000000000000000, 5.200000000000093436 ) ) ;
#224 = ORIENTED_EDGE ( 'NONE', *, *, #216, .T. ) ;
#225 = ORIENTED_EDGE ( 'NONE', *, *, #284, .T. ) ;
#226 = PRODUCT ( '62c2', '62c2', '', ( #76 ) ) ;
#227 = ORIENTED_EDGE ( 'NONE', *, *, #171, .F. ) ;
#228 = DIRECTION ( 'NONE',  ( 1.000000000000000000, 0.000000000000000000, -0.000000000000000000 ) ) ;
#229 = DIRECTION ( 'NONE',  ( 0.000000000000000000, 0.000000000000000000, 1.000000000000000000 ) ) ;
#230 = CARTESIAN_POINT ( 'NONE',  ( 4.200000000000000178, 0.000000000000000000, 5.000000000000047073 ) ) ;
#231 = APPROVAL ( #7, 'NEURÈENÝ' ) ;
#232 = CIRCLE ( 'NONE', #30, 4.000000000000000000 ) ;
#233 = DIRECTION ( 'NONE',  ( -0.000000000000000000, -0.000000000000000000, -1.000000000000000000 ) ) ;
#234 = DIRECTION ( 'NONE',  ( -1.000000000000000000, 0.000000000000000000, 0.000000000000000000 ) ) ;
#235 = DIRECTION ( 'NONE',  ( 0.000000000000000000, 0.000000000000000000, -1.000000000000000000 ) ) ;
#236 = LOCAL_TIME ( 11, 47, 42.00000000000000000, #214 ) ;
#237 = CARTESIAN_POINT ( 'NONE',  ( 0.000000000000000000, 0.000000000000000000, 5.200000000000093436 ) ) ;
#238 = PERSON_AND_ORGANIZATION ( #287, #121 ) ;
#239 = CIRCLE ( 'NONE', #258, 0.1999999999999996503 ) ;
#240 = CARTESIAN_POINT ( 'NONE',  ( 0.000000000000000000, 0.000000000000000000, 5.000000000000000000 ) ) ;
#241 = ADVANCED_FACE ( 'NONE', ( #191 ), #168, .T. ) ;
#242 = ORIENTED_EDGE ( 'NONE', *, *, #171, .T. ) ;
#243 = ORIENTED_EDGE ( 'NONE', *, *, #156, .F. ) ;
#244 = AXIS2_PLACEMENT_3D ( 'NONE', #132, #296, #103 ) ;
#245 = AXIS2_PLACEMENT_3D ( 'NONE', #288, #77, #195 ) ;
#246 = EDGE_LOOP ( 'NONE', ( #84, #134 ) ) ;
#247 = EDGE_LOOP ( 'NONE', ( #227, #202 ) ) ;
#248 = ORIENTED_EDGE ( 'NONE', *, *, #156, .T. ) ;
#249 = ORIENTED_EDGE ( 'NONE', *, *, #106, .F. ) ;
#250 = FACE_OUTER_BOUND ( 'NONE', #13, .T. ) ;
#251 = ADVANCED_FACE ( 'NONE', ( #252 ), #96, .T. ) ;
#252 = FACE_OUTER_BOUND ( 'NONE', #162, .T. ) ;
#253 = ADVANCED_BREP_SHAPE_REPRESENTATION ( '62c2', ( #117, #245 ), #208 ) ;
#254 = CC_DESIGN_PERSON_AND_ORGANIZATION_ASSIGNMENT ( #293, #101, ( #143 ) ) ;
#255 = CARTESIAN_POINT ( 'NONE',  ( 7.000000000000000000, 8.572527594031473190E-16, 0.000000000000000000 ) ) ;
#256 = CARTESIAN_POINT ( 'NONE',  ( 0.000000000000000000, 0.000000000000000000, 1204.999999999999773 ) ) ;
#257 = AXIS2_PLACEMENT_3D ( 'NONE', #133, #271, #60 ) ;
#258 = AXIS2_PLACEMENT_3D ( 'NONE', #97, #150, #235 ) ;
#259 = DIRECTION ( 'NONE',  ( -0.000000000000000000, -0.000000000000000000, -1.000000000000000000 ) ) ;
#260 =( LENGTH_UNIT ( ) NAMED_UNIT ( * ) SI_UNIT ( .MILLI., .METRE. ) );
#261 = CALENDAR_DATE ( 2022, 20, 6 ) ;
#262 = PERSON_AND_ORGANIZATION ( #287, #121 ) ;
#263 = APPROVAL_DATE_TIME ( #5, #25 ) ;
#264 = AXIS2_PLACEMENT_3D ( 'NONE', #105, #298, #218 ) ;
#265 = AXIS2_PLACEMENT_3D ( 'NONE', #95, #192, #283 ) ;
#266 = ADVANCED_FACE ( 'NONE', ( #142 ), #207, .F. ) ;
#267 = DIRECTION ( 'NONE',  ( 1.000000000000000000, 0.000000000000000000, 0.000000000000000000 ) ) ;
#268 = ORIENTED_EDGE ( 'NONE', *, *, #92, .F. ) ;
#269 = LINE ( 'NONE', #155, #115 ) ;
#270 = AXIS2_PLACEMENT_3D ( 'NONE', #116, #17, #141 ) ;
#271 = DIRECTION ( 'NONE',  ( 0.000000000000000000, 0.000000000000000000, 1.000000000000000000 ) ) ;
#272 = ORIENTED_EDGE ( 'NONE', *, *, #278, .T. ) ;
#273 = DESIGN_CONTEXT ( 'detailed design', #161, 'design' ) ;
#274 = PERSON_AND_ORGANIZATION ( #287, #121 ) ;
#275 = VERTEX_POINT ( 'NONE', #210 ) ;
#276 = EDGE_LOOP ( 'NONE', ( #243, #272, #203, #222 ) ) ;
#277 = CARTESIAN_POINT ( 'NONE',  ( -4.000000000000000000, 0.000000000000000000, 1204.999999999999773 ) ) ;
#278 = EDGE_CURVE ( 'NONE', #61, #153, #300, .T. ) ;
#279 = PRODUCT_DEFINITION_SHAPE ( 'NONE', 'NONE',  #54 ) ;
#280 = APPROVAL_PERSON_ORGANIZATION ( #262, #25, #149 ) ;
#281 = CARTESIAN_POINT ( 'NONE',  ( 0.000000000000000000, 0.000000000000000000, 0.000000000000000000 ) ) ;
#282 = CARTESIAN_POINT ( 'NONE',  ( 0.000000000000000000, 0.000000000000000000, 5.000000000000000000 ) ) ;
#283 = DIRECTION ( 'NONE',  ( 1.000000000000000000, 0.000000000000000000, 0.000000000000000000 ) ) ;
#284 = EDGE_CURVE ( 'NONE', #108, #159, #163, .T. ) ;
#285 = AXIS2_PLACEMENT_3D ( 'NONE', #237, #213, #120 ) ;
#286 =( NAMED_UNIT ( * ) SI_UNIT ( $, .STERADIAN. ) SOLID_ANGLE_UNIT ( ) );
#287 = PERSON ( 'NEURÈENÝ', 'NEURÈENÝ', 'NEURÈENÝ', ('NEURÈENÝ'), ('NEURÈENÝ'), ('NEURÈENÝ') ) ;
#288 = CARTESIAN_POINT ( 'NONE',  ( 0.000000000000000000, 0.000000000000000000, 0.000000000000000000 ) ) ;
#289 = COORDINATED_UNIVERSAL_TIME_OFFSET ( 1, 0, .AHEAD. ) ;
#290 = EDGE_CURVE ( 'NONE', #88, #61, #110, .T. ) ;
#291 = APPLICATION_PROTOCOL_DEFINITION ( 'international standard', 'config_control_design', 1994, #161 ) ;
#292 = TOROIDAL_SURFACE ( 'NONE', #2, 4.200000000000000178, 0.2000000000000000111 ) ;
#293 = PERSON_AND_ORGANIZATION ( #287, #121 ) ;
#294 = EDGE_CURVE ( 'NONE', #88, #158, #239, .T. ) ;
#295 = EDGE_LOOP ( 'NONE', ( #268, #130, #157, #248 ) ) ;
#296 = DIRECTION ( 'NONE',  ( -0.000000000000000000, -0.000000000000000000, -1.000000000000000000 ) ) ;
#297 = ORIENTED_EDGE ( 'NONE', *, *, #290, .T. ) ;
#298 = DIRECTION ( 'NONE',  ( 0.000000000000000000, 0.000000000000000000, 1.000000000000000000 ) ) ;
#299 = AXIS2_PLACEMENT_3D ( 'NONE', #303, #259, #234 ) ;
#300 = CIRCLE ( 'NONE', #67, 0.1999999999999996503 ) ;
#301 = ORIENTED_EDGE ( 'NONE', *, *, #278, .F. ) ;
#302 = EDGE_LOOP ( 'NONE', ( #301, #135, #136, #15 ) ) ;
#303 = CARTESIAN_POINT ( 'NONE',  ( 0.000000000000000000, 0.000000000000000000, 1204.999999999999773 ) ) ;
#304 = APPROVAL ( #62, 'NEURÈENÝ' ) ;
#305 = DIRECTION ( 'NONE',  ( -0.000000000000000000, -0.000000000000000000, -1.000000000000000000 ) ) ;
#306 = CARTESIAN_POINT ( 'NONE',  ( 7.000000000000000000, 8.572527594031473190E-16, 5.000000000000000000 ) ) ;
#307 = DIRECTION ( 'NONE',  ( -1.000000000000000000, 1.224646799147353454E-16, 0.000000000000000000 ) ) ;
ENDSEC;
END-ISO-10303-21;
