ISO-10303-21;
HEADER;
FILE_DESCRIPTION (( 'STEP AP203' ),
    '1' );
FILE_NAME ('c014.STEP',
    '2022-06-20T10:30:34',
    ( '' ),
    ( '' ),
    'SwSTEP 2.0',
    'SolidWorks 2019',
    '' );
FILE_SCHEMA (( 'CONFIG_CONTROL_DESIGN' ));
ENDSEC;

DATA;
#1 = ORIENTED_EDGE ( 'NONE', *, *, #100, .F. ) ;
#2 = ORIENTED_EDGE ( 'NONE', *, *, #50, .T. ) ;
#3 = PERSON_AND_ORGANIZATION ( #210, #85 ) ;
#4 = VERTEX_POINT ( 'NONE', #108 ) ;
#5 = DIRECTION ( 'NONE',  ( 0.000000000000000000, -1.000000000000000000, 0.000000000000000000 ) ) ;
#6 = EDGE_LOOP ( 'NONE', ( #97, #2 ) ) ;
#7 = DIRECTION ( 'NONE',  ( 0.000000000000000000, 0.000000000000000000, 1.000000000000000000 ) ) ;
#8 = CARTESIAN_POINT ( 'NONE',  ( 0.000000000000000000, 0.000000000000000000, 1.199999999999999956 ) ) ;
#9 = AXIS2_PLACEMENT_3D ( 'NONE', #148, #53, #268 ) ;
#10 = CALENDAR_DATE ( 2022, 20, 6 ) ;
#11 = CARTESIAN_POINT ( 'NONE',  ( 0.000000000000000000, 0.000000000000000000, 1.199999999999999956 ) ) ;
#12 = PERSON_AND_ORGANIZATION ( #210, #85 ) ;
#13 = ADVANCED_BREP_SHAPE_REPRESENTATION ( 'c014', ( #278, #126 ), #280 ) ;
#14 = CARTESIAN_POINT ( 'NONE',  ( -0.5000000000000000000, 0.000000000000000000, 101.2000000000000171 ) ) ;
#15 = CALENDAR_DATE ( 2022, 20, 6 ) ;
#16 = PLANE ( 'NONE',  #261 ) ;
#17 = CYLINDRICAL_SURFACE ( 'NONE', #257, 0.5000000000000000000 ) ;
#18 = DIRECTION ( 'NONE',  ( -0.000000000000000000, -0.000000000000000000, -1.000000000000000000 ) ) ;
#19 = TOROIDAL_SURFACE ( 'NONE', #34, 0.6999999999999999556, 0.2000000000000000111 ) ;
#20 = LOCAL_TIME ( 12, 30, 34.00000000000000000, #152 ) ;
#21 = LINE ( 'NONE', #211, #125 ) ;
#22 = EDGE_CURVE ( 'NONE', #70, #262, #291, .T. ) ;
#23 = CIRCLE ( 'NONE', #168, 0.2000000000000000944 ) ;
#24 = ORIENTED_EDGE ( 'NONE', *, *, #258, .T. ) ;
#25 = ORIENTED_EDGE ( 'NONE', *, *, #221, .T. ) ;
#26 = CIRCLE ( 'NONE', #48, 1.250000000000000000 ) ;
#27 = APPROVAL ( #94, 'NEURÈENÝ' ) ;
#28 = CARTESIAN_POINT ( 'NONE',  ( 0.000000000000000000, 0.000000000000000000, 1.399999999999998579 ) ) ;
#29 = VERTEX_POINT ( 'NONE', #137 ) ;
#30 = CIRCLE ( 'NONE', #244, 1.250000000000000000 ) ;
#31 = CARTESIAN_POINT ( 'NONE',  ( 0.000000000000000000, 0.000000000000000000, 1.399999999999998579 ) ) ;
#32 = CC_DESIGN_PERSON_AND_ORGANIZATION_ASSIGNMENT ( #79, #177, ( #195 ) ) ;
#33 = CARTESIAN_POINT ( 'NONE',  ( 0.000000000000000000, 0.000000000000000000, 1.199999999999999956 ) ) ;
#34 = AXIS2_PLACEMENT_3D ( 'NONE', #31, #82, #103 ) ;
#35 = ORIENTED_EDGE ( 'NONE', *, *, #185, .F. ) ;
#36 = ORIENTED_EDGE ( 'NONE', *, *, #300, .F. ) ;
#37 = DIRECTION ( 'NONE',  ( 1.000000000000000000, 0.000000000000000000, 0.000000000000000000 ) ) ;
#38 = CALENDAR_DATE ( 2022, 20, 6 ) ;
#39 = ORIENTED_EDGE ( 'NONE', *, *, #185, .T. ) ;
#40 = PERSON_AND_ORGANIZATION ( #210, #85 ) ;
#41 = DIRECTION ( 'NONE',  ( -0.000000000000000000, -0.000000000000000000, -1.000000000000000000 ) ) ;
#42 = ADVANCED_FACE ( 'NONE', ( #228 ), #19, .F. ) ;
#43 = APPLICATION_CONTEXT ( 'configuration controlled 3d designs of mechanical parts and assemblies' ) ;
#44 = VERTEX_POINT ( 'NONE', #203 ) ;
#45 = ORIENTED_EDGE ( 'NONE', *, *, #250, .T. ) ;
#46 = PRODUCT_DEFINITION ( 'NEZNÁMÝ', '', #305, #120 ) ;
#47 = LINE ( 'NONE', #180, #150 ) ;
#48 = AXIS2_PLACEMENT_3D ( 'NONE', #156, #138, #37 ) ;
#49 = VERTEX_POINT ( 'NONE', #14 ) ;
#50 = EDGE_CURVE ( 'NONE', #29, #49, #215, .T. ) ;
#51 = CARTESIAN_POINT ( 'NONE',  ( 0.000000000000000000, 0.000000000000000000, 1.199999999999999956 ) ) ;
#52 = CARTESIAN_POINT ( 'NONE',  ( -0.6999999999999999556, 8.572527594031471957E-17, 1.399999999999998579 ) ) ;
#53 = DIRECTION ( 'NONE',  ( 0.000000000000000000, 0.000000000000000000, 1.000000000000000000 ) ) ;
#54 = CARTESIAN_POINT ( 'NONE',  ( -1.250000000000000000, 0.000000000000000000, 0.000000000000000000 ) ) ;
#55 = CARTESIAN_POINT ( 'NONE',  ( 0.000000000000000000, 0.000000000000000000, 0.000000000000000000 ) ) ;
#56 = FACE_OUTER_BOUND ( 'NONE', #6, .T. ) ;
#57 = DATE_AND_TIME ( #38, #71 ) ;
#58 = DIRECTION ( 'NONE',  ( 0.000000000000000000, 0.000000000000000000, 1.000000000000000000 ) ) ;
#59 = CC_DESIGN_DATE_AND_TIME_ASSIGNMENT ( #275, #227, ( #46 ) ) ;
#60 = DATE_AND_TIME ( #15, #194 ) ;
#61 = VERTEX_POINT ( 'NONE', #54 ) ;
#62 = AXIS2_PLACEMENT_3D ( 'NONE', #11, #292, #105 ) ;
#63 = APPLICATION_CONTEXT ( 'configuration controlled 3d designs of mechanical parts and assemblies' ) ;
#64 = DIRECTION ( 'NONE',  ( 0.000000000000000000, 0.000000000000000000, 1.000000000000000000 ) ) ;
#65 = DATE_TIME_ROLE ( 'classification_date' ) ;
#66 = ADVANCED_FACE ( 'NONE', ( #253, #184 ), #155, .T. ) ;
#67 = AXIS2_PLACEMENT_3D ( 'NONE', #28, #77, #81 ) ;
#68 = APPROVAL_PERSON_ORGANIZATION ( #12, #286, #296 ) ;
#69 = CC_DESIGN_PERSON_AND_ORGANIZATION_ASSIGNMENT ( #197, #288, ( #46 ) ) ;
#70 = VERTEX_POINT ( 'NONE', #276 ) ;
#71 = LOCAL_TIME ( 12, 30, 34.00000000000000000, #162 ) ;
#72 = COORDINATED_UNIVERSAL_TIME_OFFSET ( 1, 0, .AHEAD. ) ;
#73 = EDGE_LOOP ( 'NONE', ( #196, #240 ) ) ;
#74 = DIRECTION ( 'NONE',  ( 0.000000000000000000, 0.000000000000000000, 1.000000000000000000 ) ) ;
#75 = ORIENTED_EDGE ( 'NONE', *, *, #246, .T. ) ;
#76 = AXIS2_PLACEMENT_3D ( 'NONE', #159, #251, #294 ) ;
#77 = DIRECTION ( 'NONE',  ( 0.000000000000000000, 0.000000000000000000, 1.000000000000000000 ) ) ;
#78 = DIRECTION ( 'NONE',  ( -1.000000000000000000, 0.000000000000000000, 0.000000000000000000 ) ) ;
#79 = PERSON_AND_ORGANIZATION ( #210, #85 ) ;
#80 = ORIENTED_EDGE ( 'NONE', *, *, #89, .F. ) ;
#81 = DIRECTION ( 'NONE',  ( 1.000000000000000000, 0.000000000000000000, 0.000000000000000000 ) ) ;
#82 = DIRECTION ( 'NONE',  ( 0.000000000000000000, 0.000000000000000000, 1.000000000000000000 ) ) ;
#83 = ORIENTED_EDGE ( 'NONE', *, *, #191, .F. ) ;
#84 = ADVANCED_FACE ( 'NONE', ( #249 ), #201, .F. ) ;
#85 = ORGANIZATION ( 'NEURÈENÝ', 'NEURÈENÝ', '' ) ;
#86 = ORIENTED_EDGE ( 'NONE', *, *, #89, .T. ) ;
#87 = EDGE_CURVE ( 'NONE', #49, #29, #254, .T. ) ;
#88 = APPROVAL_PERSON_ORGANIZATION ( #3, #27, #270 ) ;
#89 = EDGE_CURVE ( 'NONE', #61, #44, #26, .T. ) ;
#90 = LINE ( 'NONE', #234, #146 ) ;
#91 = APPROVAL ( #157, 'NEURÈENÝ' ) ;
#92 = CIRCLE ( 'NONE', #9, 0.5000000000000000000 ) ;
#93 = EDGE_LOOP ( 'NONE', ( #216, #174, #24, #36 ) ) ;
#94 = APPROVAL_STATUS ( 'not_yet_approved' ) ;
#95 = ORIENTED_EDGE ( 'NONE', *, *, #191, .T. ) ;
#96 = DIRECTION ( 'NONE',  ( -0.000000000000000000, -0.000000000000000000, -1.000000000000000000 ) ) ;
#97 = ORIENTED_EDGE ( 'NONE', *, *, #87, .T. ) ;
#98 = DIRECTION ( 'NONE',  ( 0.000000000000000000, 0.000000000000000000, 1.000000000000000000 ) ) ;
#99 = EDGE_LOOP ( 'NONE', ( #83, #287, #45, #260 ) ) ;
#100 = EDGE_CURVE ( 'NONE', #4, #218, #140, .T. ) ;
#101 = APPLICATION_PROTOCOL_DEFINITION ( 'international standard', 'config_control_design', 1994, #43 ) ;
#102 = CIRCLE ( 'NONE', #109, 0.6999999999999999556 ) ;
#103 = DIRECTION ( 'NONE',  ( 1.000000000000000000, 0.000000000000000000, 0.000000000000000000 ) ) ;
#104 = DIRECTION ( 'NONE',  ( 1.000000000000000000, 0.000000000000000000, 0.000000000000000000 ) ) ;
#105 = DIRECTION ( 'NONE',  ( 1.000000000000000000, 0.000000000000000000, 0.000000000000000000 ) ) ;
#106 = PERSON_AND_ORGANIZATION ( #210, #85 ) ;
#107 = EDGE_CURVE ( 'NONE', #262, #212, #182, .T. ) ;
#108 = CARTESIAN_POINT ( 'NONE',  ( -1.250000000000000000, 0.000000000000000000, 1.199999999999999956 ) ) ;
#109 = AXIS2_PLACEMENT_3D ( 'NONE', #33, #124, #104 ) ;
#110 = CC_DESIGN_SECURITY_CLASSIFICATION ( #224, ( #305 ) ) ;
#111 = ADVANCED_FACE ( 'NONE', ( #181 ), #272, .T. ) ;
#112 = ADVANCED_FACE ( 'NONE', ( #56 ), #16, .T. ) ;
#113 = PERSON_AND_ORGANIZATION ( #210, #85 ) ;
#114 = FACE_OUTER_BOUND ( 'NONE', #129, .T. ) ;
#115 = COORDINATED_UNIVERSAL_TIME_OFFSET ( 1, 0, .AHEAD. ) ;
#116 = LOCAL_TIME ( 12, 30, 34.00000000000000000, #204 ) ;
#117 = ORIENTED_EDGE ( 'NONE', *, *, #22, .T. ) ;
#118 = PRODUCT_RELATED_PRODUCT_CATEGORY ( 'detail', '', ( #195 ) ) ;
#119 = EDGE_LOOP ( 'NONE', ( #243, #117, #179, #266 ) ) ;
#120 = DESIGN_CONTEXT ( 'detailed design', #63, 'design' ) ;
#121 = VERTEX_POINT ( 'NONE', #153 ) ;
#122 = AXIS2_PLACEMENT_3D ( 'NONE', #205, #222, #298 ) ;
#123 = AXIS2_PLACEMENT_3D ( 'NONE', #134, #225, #295 ) ;
#124 = DIRECTION ( 'NONE',  ( -0.000000000000000000, -0.000000000000000000, -1.000000000000000000 ) ) ;
#125 = VECTOR ( 'NONE', #41, 1000.000000000000000 ) ;
#126 = AXIS2_PLACEMENT_3D ( 'NONE', #55, #7, #293 ) ;
#127 = CARTESIAN_POINT ( 'NONE',  ( 0.000000000000000000, 0.000000000000000000, 0.000000000000000000 ) ) ;
#128 = ADVANCED_FACE ( 'NONE', ( #232 ), #17, .T. ) ;
#129 = EDGE_LOOP ( 'NONE', ( #171, #1, #198, #86 ) ) ;
#130 = CARTESIAN_POINT ( 'NONE',  ( 0.6999999999999999556, 0.000000000000000000, 1.399999999999998579 ) ) ;
#131 = DIRECTION ( 'NONE',  ( 1.000000000000000000, 0.000000000000000000, -0.000000000000000000 ) ) ;
#132 = AXIS2_PLACEMENT_3D ( 'NONE', #186, #230, #78 ) ;
#133 = DIRECTION ( 'NONE',  ( 1.000000000000000000, 0.000000000000000000, 0.000000000000000000 ) ) ;
#134 = CARTESIAN_POINT ( 'NONE',  ( 0.000000000000000000, 0.000000000000000000, 1.199999999999999956 ) ) ;
#135 = CC_DESIGN_APPROVAL ( #27, ( #46 ) ) ;
#136 = CALENDAR_DATE ( 2022, 20, 6 ) ;
#137 = CARTESIAN_POINT ( 'NONE',  ( 0.5000000000000000000, 6.123233995736766036E-17, 101.2000000000000171 ) ) ;
#138 = DIRECTION ( 'NONE',  ( 0.000000000000000000, 0.000000000000000000, 1.000000000000000000 ) ) ;
#139 = APPROVAL_DATE_TIME ( #57, #91 ) ;
#140 = CIRCLE ( 'NONE', #123, 1.250000000000000000 ) ;
#141 = DIRECTION ( 'NONE',  ( 1.000000000000000000, 0.000000000000000000, -0.000000000000000000 ) ) ;
#142 = CARTESIAN_POINT ( 'NONE',  ( 0.6999999999999999556, 0.000000000000000000, 1.199999999999999289 ) ) ;
#143 = CC_DESIGN_APPROVAL ( #286, ( #305 ) ) ;
#144 = DIRECTION ( 'NONE',  ( -1.000000000000000000, 0.000000000000000000, 0.000000000000000000 ) ) ;
#145 = ORIENTED_EDGE ( 'NONE', *, *, #250, .F. ) ;
#146 = VECTOR ( 'NONE', #18, 1000.000000000000000 ) ;
#147 = EDGE_LOOP ( 'NONE', ( #238, #95, #39, #145 ) ) ;
#148 = CARTESIAN_POINT ( 'NONE',  ( 0.000000000000000000, 0.000000000000000000, 1.399999999999998579 ) ) ;
#149 = ORIENTED_EDGE ( 'NONE', *, *, #22, .F. ) ;
#150 = VECTOR ( 'NONE', #172, 1000.000000000000000 ) ;
#151 = ORIENTED_EDGE ( 'NONE', *, *, #107, .T. ) ;
#152 = COORDINATED_UNIVERSAL_TIME_OFFSET ( 1, 0, .AHEAD. ) ;
#153 = CARTESIAN_POINT ( 'NONE',  ( 0.5000000000000000000, 6.123233995736766036E-17, 1.399999999999998579 ) ) ;
#154 = APPLICATION_PROTOCOL_DEFINITION ( 'international standard', 'config_control_design', 1994, #63 ) ;
#155 = PLANE ( 'NONE',  #297 ) ;
#156 = CARTESIAN_POINT ( 'NONE',  ( 0.000000000000000000, 0.000000000000000000, 0.000000000000000000 ) ) ;
#157 = APPROVAL_STATUS ( 'not_yet_approved' ) ;
#158 = CLOSED_SHELL ( 'NONE', ( #226, #160, #111, #165, #66, #84, #128, #112, #42 ) ) ;
#159 = CARTESIAN_POINT ( 'NONE',  ( 0.000000000000000000, 0.000000000000000000, 0.000000000000000000 ) ) ;
#160 = ADVANCED_FACE ( 'NONE', ( #208 ), #192, .T. ) ;
#161 = DIRECTION ( 'NONE',  ( 0.000000000000000000, 0.000000000000000000, 1.000000000000000000 ) ) ;
#162 = COORDINATED_UNIVERSAL_TIME_OFFSET ( 1, 0, .AHEAD. ) ;
#163 = AXIS2_PLACEMENT_3D ( 'NONE', #164, #64, #237 ) ;
#164 = CARTESIAN_POINT ( 'NONE',  ( 0.000000000000000000, 0.000000000000000000, 1.399999999999998579 ) ) ;
#165 = ADVANCED_FACE ( 'NONE', ( #114 ), #282, .T. ) ;
#166 = AXIS2_PLACEMENT_3D ( 'NONE', #247, #206, #271 ) ;
#167 = CARTESIAN_POINT ( 'NONE',  ( 0.000000000000000000, 0.000000000000000000, 101.2000000000000171 ) ) ;
#168 = AXIS2_PLACEMENT_3D ( 'NONE', #130, #5, #290 ) ;
#169 = ORIENTED_EDGE ( 'NONE', *, *, #258, .F. ) ;
#170 = AXIS2_PLACEMENT_3D ( 'NONE', #52, #269, #274 ) ;
#171 = ORIENTED_EDGE ( 'NONE', *, *, #220, .F. ) ;
#172 = DIRECTION ( 'NONE',  ( -0.000000000000000000, -0.000000000000000000, -1.000000000000000000 ) ) ;
#173 = ORIENTED_EDGE ( 'NONE', *, *, #107, .F. ) ;
#174 = ORIENTED_EDGE ( 'NONE', *, *, #220, .T. ) ;
#175 = APPROVAL_PERSON_ORGANIZATION ( #277, #91, #209 ) ;
#176 = DIRECTION ( 'NONE',  ( -0.000000000000000000, -0.000000000000000000, -1.000000000000000000 ) ) ;
#177 = PERSON_AND_ORGANIZATION_ROLE ( 'design_owner' ) ;
#178 = CC_DESIGN_DATE_AND_TIME_ASSIGNMENT ( #302, #65, ( #224 ) ) ;
#179 = ORIENTED_EDGE ( 'NONE', *, *, #246, .F. ) ;
#180 = CARTESIAN_POINT ( 'NONE',  ( -0.5000000000000000000, 0.000000000000000000, 101.2000000000000171 ) ) ;
#181 = FACE_OUTER_BOUND ( 'NONE', #93, .T. ) ;
#182 = CIRCLE ( 'NONE', #62, 0.6999999999999999556 ) ;
#183 = APPROVAL_STATUS ( 'not_yet_approved' ) ;
#184 = FACE_OUTER_BOUND ( 'NONE', #73, .T. ) ;
#185 = EDGE_CURVE ( 'NONE', #121, #70, #189, .T. ) ;
#186 = CARTESIAN_POINT ( 'NONE',  ( 0.000000000000000000, 0.000000000000000000, 1.199999999999999956 ) ) ;
#187 = CALENDAR_DATE ( 2022, 20, 6 ) ;
#188 = DIRECTION ( 'NONE',  ( -1.000000000000000000, 0.000000000000000000, 0.000000000000000000 ) ) ;
#189 = CIRCLE ( 'NONE', #163, 0.5000000000000000000 ) ;
#190 = PERSON_AND_ORGANIZATION_ROLE ( 'classification_officer' ) ;
#191 = EDGE_CURVE ( 'NONE', #29, #121, #21, .T. ) ;
#192 = CYLINDRICAL_SURFACE ( 'NONE', #299, 0.5000000000000000000 ) ;
#193 = CIRCLE ( 'NONE', #279, 1.250000000000000000 ) ;
#194 = LOCAL_TIME ( 12, 30, 34.00000000000000000, #115 ) ;
#195 = PRODUCT ( 'c014', 'c014', '', ( #219 ) ) ;
#196 = ORIENTED_EDGE ( 'NONE', *, *, #100, .T. ) ;
#197 = PERSON_AND_ORGANIZATION ( #210, #85 ) ;
#198 = ORIENTED_EDGE ( 'NONE', *, *, #300, .T. ) ;
#199 = CARTESIAN_POINT ( 'NONE',  ( 0.000000000000000000, 0.000000000000000000, 101.2000000000000171 ) ) ;
#200 = DIRECTION ( 'NONE',  ( 1.000000000000000000, 0.000000000000000000, 0.000000000000000000 ) ) ;
#201 = PLANE ( 'NONE',  #76 ) ;
#202 = APPROVAL_DATE_TIME ( #223, #27 ) ;
#203 = CARTESIAN_POINT ( 'NONE',  ( 1.250000000000000000, 1.530808498934191571E-16, 0.000000000000000000 ) ) ;
#204 = COORDINATED_UNIVERSAL_TIME_OFFSET ( 1, 0, .AHEAD. ) ;
#205 = CARTESIAN_POINT ( 'NONE',  ( 0.000000000000000000, 0.000000000000000000, 101.2000000000000171 ) ) ;
#206 = DIRECTION ( 'NONE',  ( 0.000000000000000000, 0.000000000000000000, 1.000000000000000000 ) ) ;
#207 = CC_DESIGN_PERSON_AND_ORGANIZATION_ASSIGNMENT ( #106, #252, ( #305 ) ) ;
#208 = FACE_OUTER_BOUND ( 'NONE', #147, .T. ) ;
#209 = APPROVAL_ROLE ( '' ) ;
#210 = PERSON ( 'NEURÈENÝ', 'NEURÈENÝ', 'NEURÈENÝ', ('NEURÈENÝ'), ('NEURÈENÝ'), ('NEURÈENÝ') ) ;
#211 = CARTESIAN_POINT ( 'NONE',  ( 0.5000000000000000000, 6.123233995736766036E-17, 101.2000000000000171 ) ) ;
#212 = VERTEX_POINT ( 'NONE', #142 ) ;
#213 = EDGE_LOOP ( 'NONE', ( #75, #151 ) ) ;
#214 = LINE ( 'NONE', #242, #267 ) ;
#215 = CIRCLE ( 'NONE', #122, 0.5000000000000000000 ) ;
#216 = ORIENTED_EDGE ( 'NONE', *, *, #236, .F. ) ;
#217 = CARTESIAN_POINT ( 'NONE',  ( -0.6999999999999999556, 8.572527594031473190E-17, 1.199999999999999289 ) ) ;
#218 = VERTEX_POINT ( 'NONE', #307 ) ;
#219 = MECHANICAL_CONTEXT ( 'NONE', #43, 'mechanical' ) ;
#220 = EDGE_CURVE ( 'NONE', #218, #44, #90, .T. ) ;
#221 = EDGE_CURVE ( 'NONE', #121, #212, #23, .T. ) ;
#222 = DIRECTION ( 'NONE',  ( 0.000000000000000000, 0.000000000000000000, 1.000000000000000000 ) ) ;
#223 = DATE_AND_TIME ( #10, #20 ) ;
#224 = SECURITY_CLASSIFICATION ( '', '', #256 ) ;
#225 = DIRECTION ( 'NONE',  ( 0.000000000000000000, 0.000000000000000000, 1.000000000000000000 ) ) ;
#226 = ADVANCED_FACE ( 'NONE', ( #248 ), #284, .F. ) ;
#227 = DATE_TIME_ROLE ( 'creation_date' ) ;
#228 = FACE_OUTER_BOUND ( 'NONE', #264, .T. ) ;
#229 = CC_DESIGN_PERSON_AND_ORGANIZATION_ASSIGNMENT ( #40, #303, ( #305 ) ) ;
#230 = DIRECTION ( 'NONE',  ( -0.000000000000000000, -0.000000000000000000, -1.000000000000000000 ) ) ;
#231 = SHAPE_DEFINITION_REPRESENTATION ( #255, #13 ) ;
#232 = FACE_OUTER_BOUND ( 'NONE', #99, .T. ) ;
#233 = LOCAL_TIME ( 12, 30, 34.00000000000000000, #72 ) ;
#234 = CARTESIAN_POINT ( 'NONE',  ( 1.250000000000000000, 1.530808498934191571E-16, 1.199999999999999956 ) ) ;
#235 = CC_DESIGN_PERSON_AND_ORGANIZATION_ASSIGNMENT ( #113, #190, ( #224 ) ) ;
#236 = EDGE_CURVE ( 'NONE', #218, #4, #30, .T. ) ;
#237 = DIRECTION ( 'NONE',  ( 1.000000000000000000, 0.000000000000000000, 0.000000000000000000 ) ) ;
#238 = ORIENTED_EDGE ( 'NONE', *, *, #50, .F. ) ;
#239 = AXIS2_PLACEMENT_3D ( 'NONE', #259, #304, #188 ) ;
#240 = ORIENTED_EDGE ( 'NONE', *, *, #236, .T. ) ;
#241 = UNCERTAINTY_MEASURE_WITH_UNIT (LENGTH_MEASURE( 1.000000000000000082E-05 ), #289, 'distance_accuracy_value', 'NONE');
#242 = CARTESIAN_POINT ( 'NONE',  ( -1.250000000000000000, 0.000000000000000000, 1.199999999999999956 ) ) ;
#243 = ORIENTED_EDGE ( 'NONE', *, *, #283, .F. ) ;
#244 = AXIS2_PLACEMENT_3D ( 'NONE', #51, #98, #200 ) ;
#245 = EDGE_LOOP ( 'NONE', ( #80, #169 ) ) ;
#246 = EDGE_CURVE ( 'NONE', #212, #262, #102, .T. ) ;
#247 = CARTESIAN_POINT ( 'NONE',  ( 0.000000000000000000, 0.000000000000000000, 101.2000000000000171 ) ) ;
#248 = FACE_OUTER_BOUND ( 'NONE', #119, .T. ) ;
#249 = FACE_OUTER_BOUND ( 'NONE', #245, .T. ) ;
#250 = EDGE_CURVE ( 'NONE', #49, #70, #47, .T. ) ;
#251 = DIRECTION ( 'NONE',  ( 0.000000000000000000, 0.000000000000000000, 1.000000000000000000 ) ) ;
#252 = PERSON_AND_ORGANIZATION_ROLE ( 'design_supplier' ) ;
#253 = FACE_BOUND ( 'NONE', #213, .T. ) ;
#254 = CIRCLE ( 'NONE', #166, 0.5000000000000000000 ) ;
#255 = PRODUCT_DEFINITION_SHAPE ( 'NONE', 'NONE',  #46 ) ;
#256 = SECURITY_CLASSIFICATION_LEVEL ( 'unclassified' ) ;
#257 = AXIS2_PLACEMENT_3D ( 'NONE', #199, #176, #306 ) ;
#258 = EDGE_CURVE ( 'NONE', #44, #61, #193, .T. ) ;
#259 = CARTESIAN_POINT ( 'NONE',  ( 0.000000000000000000, 0.000000000000000000, 1.199999999999999956 ) ) ;
#260 = ORIENTED_EDGE ( 'NONE', *, *, #283, .T. ) ;
#261 = AXIS2_PLACEMENT_3D ( 'NONE', #301, #161, #141 ) ;
#262 = VERTEX_POINT ( 'NONE', #217 ) ;
#263 =( NAMED_UNIT ( * ) SI_UNIT ( $, .STERADIAN. ) SOLID_ANGLE_UNIT ( ) );
#264 = EDGE_LOOP ( 'NONE', ( #149, #35, #25, #173 ) ) ;
#265 =( NAMED_UNIT ( * ) PLANE_ANGLE_UNIT ( ) SI_UNIT ( $, .RADIAN. ) );
#266 = ORIENTED_EDGE ( 'NONE', *, *, #221, .F. ) ;
#267 = VECTOR ( 'NONE', #96, 1000.000000000000000 ) ;
#268 = DIRECTION ( 'NONE',  ( 1.000000000000000000, 0.000000000000000000, 0.000000000000000000 ) ) ;
#269 = DIRECTION ( 'NONE',  ( 1.224646799147353207E-16, 1.000000000000000000, -0.000000000000000000 ) ) ;
#270 = APPROVAL_ROLE ( '' ) ;
#271 = DIRECTION ( 'NONE',  ( 1.000000000000000000, 0.000000000000000000, 0.000000000000000000 ) ) ;
#272 = CYLINDRICAL_SURFACE ( 'NONE', #132, 1.250000000000000000 ) ;
#273 = APPROVAL_DATE_TIME ( #60, #286 ) ;
#274 = DIRECTION ( 'NONE',  ( -1.000000000000000000, 1.224646799147352714E-16, 0.000000000000000000 ) ) ;
#275 = DATE_AND_TIME ( #136, #233 ) ;
#276 = CARTESIAN_POINT ( 'NONE',  ( -0.5000000000000000000, 0.000000000000000000, 1.399999999999998579 ) ) ;
#277 = PERSON_AND_ORGANIZATION ( #210, #85 ) ;
#278 = MANIFOLD_SOLID_BREP ( 'Zaoblit1', #158 ) ;
#279 = AXIS2_PLACEMENT_3D ( 'NONE', #127, #74, #133 ) ;
#280 =( GEOMETRIC_REPRESENTATION_CONTEXT ( 3 ) GLOBAL_UNCERTAINTY_ASSIGNED_CONTEXT ( ( #241 ) ) GLOBAL_UNIT_ASSIGNED_CONTEXT ( ( #289, #265, #263 ) ) REPRESENTATION_CONTEXT ( 'NONE', 'WORKASPACE' ) );
#281 = DIRECTION ( 'NONE',  ( -0.000000000000000000, -0.000000000000000000, -1.000000000000000000 ) ) ;
#282 = CYLINDRICAL_SURFACE ( 'NONE', #239, 1.250000000000000000 ) ;
#283 = EDGE_CURVE ( 'NONE', #70, #121, #92, .T. ) ;
#284 = TOROIDAL_SURFACE ( 'NONE', #67, 0.6999999999999999556, 0.2000000000000000111 ) ;
#285 = CC_DESIGN_APPROVAL ( #91, ( #224 ) ) ;
#286 = APPROVAL ( #183, 'NEURÈENÝ' ) ;
#287 = ORIENTED_EDGE ( 'NONE', *, *, #87, .F. ) ;
#288 = PERSON_AND_ORGANIZATION_ROLE ( 'creator' ) ;
#289 =( LENGTH_UNIT ( ) NAMED_UNIT ( * ) SI_UNIT ( .MILLI., .METRE. ) );
#290 = DIRECTION ( 'NONE',  ( 0.000000000000000000, 0.000000000000000000, -1.000000000000000000 ) ) ;
#291 = CIRCLE ( 'NONE', #170, 0.1999999999999999833 ) ;
#292 = DIRECTION ( 'NONE',  ( -0.000000000000000000, -0.000000000000000000, -1.000000000000000000 ) ) ;
#293 = DIRECTION ( 'NONE',  ( 1.000000000000000000, 0.000000000000000000, 0.000000000000000000 ) ) ;
#294 = DIRECTION ( 'NONE',  ( 1.000000000000000000, 0.000000000000000000, -0.000000000000000000 ) ) ;
#295 = DIRECTION ( 'NONE',  ( 1.000000000000000000, 0.000000000000000000, 0.000000000000000000 ) ) ;
#296 = APPROVAL_ROLE ( '' ) ;
#297 = AXIS2_PLACEMENT_3D ( 'NONE', #8, #58, #131 ) ;
#298 = DIRECTION ( 'NONE',  ( 1.000000000000000000, 0.000000000000000000, 0.000000000000000000 ) ) ;
#299 = AXIS2_PLACEMENT_3D ( 'NONE', #167, #281, #144 ) ;
#300 = EDGE_CURVE ( 'NONE', #4, #61, #214, .T. ) ;
#301 = CARTESIAN_POINT ( 'NONE',  ( 0.000000000000000000, 0.000000000000000000, 101.2000000000000171 ) ) ;
#302 = DATE_AND_TIME ( #187, #116 ) ;
#303 = PERSON_AND_ORGANIZATION_ROLE ( 'creator' ) ;
#304 = DIRECTION ( 'NONE',  ( -0.000000000000000000, -0.000000000000000000, -1.000000000000000000 ) ) ;
#305 = PRODUCT_DEFINITION_FORMATION_WITH_SPECIFIED_SOURCE ( 'LIBOVOLNÝ', '', #195, .NOT_KNOWN. ) ;
#306 = DIRECTION ( 'NONE',  ( -1.000000000000000000, 0.000000000000000000, 0.000000000000000000 ) ) ;
#307 = CARTESIAN_POINT ( 'NONE',  ( 1.250000000000000000, 1.530808498934191571E-16, 1.199999999999999956 ) ) ;
ENDSEC;
END-ISO-10303-21;
