ISO-10303-21;
HEADER;
FILE_DESCRIPTION (( 'STEP AP203' ),
    '1' );
FILE_NAME ('218a.STEP',
    '2022-06-20T09:38:46',
    ( '' ),
    ( '' ),
    'SwSTEP 2.0',
    'SolidWorks 2019',
    '' );
FILE_SCHEMA (( 'CONFIG_CONTROL_DESIGN' ));
ENDSEC;

DATA;
#1 = APPROVAL ( #209, 'NEURÈENÝ' ) ;
#2 = EDGE_LOOP ( 'NONE', ( #212, #63, #79, #215 ) ) ;
#3 = CLOSED_SHELL ( 'NONE', ( #58, #242, #105, #248, #114, #231, #164, #110, #49 ) ) ;
#4 = ORIENTED_EDGE ( 'NONE', *, *, #193, .T. ) ;
#5 = APPROVAL ( #257, 'NEURÈENÝ' ) ;
#6 = DATE_TIME_ROLE ( 'classification_date' ) ;
#7 = ORIENTED_EDGE ( 'NONE', *, *, #21, .T. ) ;
#8 = FACE_OUTER_BOUND ( 'NONE', #163, .T. ) ;
#9 = LINE ( 'NONE', #148, #157 ) ;
#10 = EDGE_CURVE ( 'NONE', #240, #103, #162, .T. ) ;
#11 = DIRECTION ( 'NONE',  ( 1.000000000000000000, 0.000000000000000000, 0.000000000000000000 ) ) ;
#12 = ORIENTED_EDGE ( 'NONE', *, *, #21, .F. ) ;
#13 = AXIS2_PLACEMENT_3D ( 'NONE', #68, #189, #187 ) ;
#14 = CARTESIAN_POINT ( 'NONE',  ( -5.300000000000000711, 6.490628035480971924E-16, 4.999999999999991118 ) ) ;
#15 = PRODUCT_RELATED_PRODUCT_CATEGORY ( 'detail', '', ( #284 ) ) ;
#16 = DIRECTION ( 'NONE',  ( 1.000000000000000000, 0.000000000000000000, 0.000000000000000000 ) ) ;
#17 = CC_DESIGN_DATE_AND_TIME_ASSIGNMENT ( #237, #6, ( #177 ) ) ;
#18 = CARTESIAN_POINT ( 'NONE',  ( 5.100000000000001421, 6.245698675651502811E-16, 635.0000000000000000 ) ) ;
#19 = LOCAL_TIME ( 11, 38, 46.00000000000000000, #31 ) ;
#20 = DIRECTION ( 'NONE',  ( -0.000000000000000000, -0.000000000000000000, -1.000000000000000000 ) ) ;
#21 = EDGE_CURVE ( 'NONE', #30, #188, #35, .T. ) ;
#22 = APPROVAL_DATE_TIME ( #50, #1 ) ;
#23 = EDGE_CURVE ( 'NONE', #190, #126, #225, .T. ) ;
#24 = APPLICATION_PROTOCOL_DEFINITION ( 'international standard', 'config_control_design', 1994, #41 ) ;
#25 = VECTOR ( 'NONE', #117, 1000.000000000000000 ) ;
#26 = ORIENTED_EDGE ( 'NONE', *, *, #181, .T. ) ;
#27 = VERTEX_POINT ( 'NONE', #81 ) ;
#28 = CIRCLE ( 'NONE', #236, 8.000000000000000000 ) ;
#29 = DATE_AND_TIME ( #78, #19 ) ;
#30 = VERTEX_POINT ( 'NONE', #243 ) ;
#31 = COORDINATED_UNIVERSAL_TIME_OFFSET ( 1, 0, .AHEAD. ) ;
#32 = ORIENTED_EDGE ( 'NONE', *, *, #276, .F. ) ;
#33 = EDGE_CURVE ( 'NONE', #260, #27, #202, .T. ) ;
#34 = APPLICATION_CONTEXT ( 'configuration controlled 3d designs of mechanical parts and assemblies' ) ;
#35 = CIRCLE ( 'NONE', #203, 0.1999999999999996503 ) ;
#36 = ORIENTED_EDGE ( 'NONE', *, *, #216, .F. ) ;
#37 = CC_DESIGN_DATE_AND_TIME_ASSIGNMENT ( #74, #99, ( #61 ) ) ;
#38 = DIRECTION ( 'NONE',  ( 0.000000000000000000, 0.000000000000000000, 1.000000000000000000 ) ) ;
#39 = PRODUCT_DEFINITION_FORMATION_WITH_SPECIFIED_SOURCE ( 'LIBOVOLNÝ', '', #284, .NOT_KNOWN. ) ;
#40 = DIRECTION ( 'NONE',  ( 0.000000000000000000, 0.000000000000000000, 1.000000000000000000 ) ) ;
#41 = APPLICATION_CONTEXT ( 'configuration controlled 3d designs of mechanical parts and assemblies' ) ;
#42 = CYLINDRICAL_SURFACE ( 'NONE', #84, 8.000000000000000000 ) ;
#43 = FACE_OUTER_BOUND ( 'NONE', #144, .T. ) ;
#44 = AXIS2_PLACEMENT_3D ( 'NONE', #246, #40, #93 ) ;
#45 = CARTESIAN_POINT ( 'NONE',  ( 0.000000000000000000, 0.000000000000000000, 5.000000000000000000 ) ) ;
#46 = DIRECTION ( 'NONE',  ( -1.000000000000000000, 0.000000000000000000, 0.000000000000000000 ) ) ;
#47 = CARTESIAN_POINT ( 'NONE',  ( -5.100000000000001421, 0.000000000000000000, 635.0000000000000000 ) ) ;
#48 = APPROVAL_PERSON_ORGANIZATION ( #102, #5, #265 ) ;
#49 = ADVANCED_FACE ( 'NONE', ( #86 ), #285, .F. ) ;
#50 = DATE_AND_TIME ( #165, #161 ) ;
#51 = EDGE_LOOP ( 'NONE', ( #4, #77 ) ) ;
#52 = DATE_AND_TIME ( #259, #281 ) ;
#53 = AXIS2_PLACEMENT_3D ( 'NONE', #294, #83, #175 ) ;
#54 = EDGE_LOOP ( 'NONE', ( #214, #258, #169, #12 ) ) ;
#55 = APPROVAL_ROLE ( '' ) ;
#56 = EDGE_LOOP ( 'NONE', ( #142, #26 ) ) ;
#57 = SHAPE_DEFINITION_REPRESENTATION ( #121, #241 ) ;
#58 = ADVANCED_FACE ( 'NONE', ( #128 ), #62, .F. ) ;
#59 = EDGE_LOOP ( 'NONE', ( #194, #290, #106, #127 ) ) ;
#60 = DIRECTION ( 'NONE',  ( 1.000000000000000000, 0.000000000000000000, 0.000000000000000000 ) ) ;
#61 = PRODUCT_DEFINITION ( 'NEZNÁMÝ', '', #39, #295 ) ;
#62 = TOROIDAL_SURFACE ( 'NONE', #174, 5.300000000000000711, 0.2000000000000000111 ) ;
#63 = ORIENTED_EDGE ( 'NONE', *, *, #276, .T. ) ;
#64 = CARTESIAN_POINT ( 'NONE',  ( 0.000000000000000000, 0.000000000000000000, 5.000000000000000000 ) ) ;
#65 =( GEOMETRIC_REPRESENTATION_CONTEXT ( 3 ) GLOBAL_UNCERTAINTY_ASSIGNED_CONTEXT ( ( #204 ) ) GLOBAL_UNIT_ASSIGNED_CONTEXT ( ( #159, #71, #88 ) ) REPRESENTATION_CONTEXT ( 'NONE', 'WORKASPACE' ) );
#66 = CARTESIAN_POINT ( 'NONE',  ( 0.000000000000000000, 0.000000000000000000, 635.0000000000000000 ) ) ;
#67 = FACE_OUTER_BOUND ( 'NONE', #56, .T. ) ;
#68 = CARTESIAN_POINT ( 'NONE',  ( 0.000000000000000000, 0.000000000000000000, 0.000000000000000000 ) ) ;
#69 = VECTOR ( 'NONE', #112, 1000.000000000000000 ) ;
#70 = DIRECTION ( 'NONE',  ( -0.000000000000000000, -0.000000000000000000, -1.000000000000000000 ) ) ;
#71 =( NAMED_UNIT ( * ) PLANE_ANGLE_UNIT ( ) SI_UNIT ( $, .RADIAN. ) );
#72 = FACE_OUTER_BOUND ( 'NONE', #104, .T. ) ;
#73 = CC_DESIGN_APPROVAL ( #1, ( #61 ) ) ;
#74 = DATE_AND_TIME ( #191, #239 ) ;
#75 = COORDINATED_UNIVERSAL_TIME_OFFSET ( 1, 0, .AHEAD. ) ;
#76 = PERSON_AND_ORGANIZATION ( #138, #293 ) ;
#77 = ORIENTED_EDGE ( 'NONE', *, *, #216, .T. ) ;
#78 = CALENDAR_DATE ( 2022, 20, 6 ) ;
#79 = ORIENTED_EDGE ( 'NONE', *, *, #301, .T. ) ;
#80 = ORIENTED_EDGE ( 'NONE', *, *, #200, .T. ) ;
#81 = CARTESIAN_POINT ( 'NONE',  ( 5.100000000000001421, 6.245698675651502811E-16, 635.0000000000000000 ) ) ;
#82 = AXIS2_PLACEMENT_3D ( 'NONE', #306, #280, #180 ) ;
#83 = DIRECTION ( 'NONE',  ( -0.000000000000000000, -0.000000000000000000, -1.000000000000000000 ) ) ;
#84 = AXIS2_PLACEMENT_3D ( 'NONE', #217, #111, #198 ) ;
#85 = DIRECTION ( 'NONE',  ( 1.000000000000000000, 0.000000000000000000, 0.000000000000000000 ) ) ;
#86 = FACE_OUTER_BOUND ( 'NONE', #124, .T. ) ;
#87 = DIRECTION ( 'NONE',  ( 1.000000000000000000, 0.000000000000000000, -0.000000000000000000 ) ) ;
#88 =( NAMED_UNIT ( * ) SI_UNIT ( $, .STERADIAN. ) SOLID_ANGLE_UNIT ( ) );
#89 = CC_DESIGN_PERSON_AND_ORGANIZATION_ASSIGNMENT ( #143, #123, ( #284 ) ) ;
#90 = CIRCLE ( 'NONE', #151, 5.100000000000001421 ) ;
#91 = CARTESIAN_POINT ( 'NONE',  ( 5.300000000000000711, 0.000000000000000000, 4.999999999999991118 ) ) ;
#92 = FACE_OUTER_BOUND ( 'NONE', #2, .T. ) ;
#93 = DIRECTION ( 'NONE',  ( 1.000000000000000000, 0.000000000000000000, 0.000000000000000000 ) ) ;
#94 = CIRCLE ( 'NONE', #44, 5.100000000000001421 ) ;
#95 = PERSON_AND_ORGANIZATION ( #138, #293 ) ;
#96 = EDGE_CURVE ( 'NONE', #190, #103, #9, .T. ) ;
#97 = PERSON_AND_ORGANIZATION ( #138, #293 ) ;
#98 = ORIENTED_EDGE ( 'NONE', *, *, #33, .F. ) ;
#99 = DATE_TIME_ROLE ( 'creation_date' ) ;
#100 = ORIENTED_EDGE ( 'NONE', *, *, #147, .T. ) ;
#101 = CIRCLE ( 'NONE', #208, 5.300000000000000711 ) ;
#102 = PERSON_AND_ORGANIZATION ( #138, #293 ) ;
#103 = VERTEX_POINT ( 'NONE', #247 ) ;
#104 = EDGE_LOOP ( 'NONE', ( #146, #283, #264, #100 ) ) ;
#105 = ADVANCED_FACE ( 'NONE', ( #274 ), #42, .T. ) ;
#106 = ORIENTED_EDGE ( 'NONE', *, *, #10, .T. ) ;
#107 = CYLINDRICAL_SURFACE ( 'NONE', #53, 5.100000000000001421 ) ;
#108 = ORIENTED_EDGE ( 'NONE', *, *, #147, .F. ) ;
#109 = DIRECTION ( 'NONE',  ( 0.000000000000000000, 0.000000000000000000, 1.000000000000000000 ) ) ;
#110 = ADVANCED_FACE ( 'NONE', ( #67 ), #195, .T. ) ;
#111 = DIRECTION ( 'NONE',  ( -0.000000000000000000, -0.000000000000000000, -1.000000000000000000 ) ) ;
#112 = DIRECTION ( 'NONE',  ( -0.000000000000000000, -0.000000000000000000, -1.000000000000000000 ) ) ;
#113 = DIRECTION ( 'NONE',  ( -1.000000000000000000, 0.000000000000000000, 0.000000000000000000 ) ) ;
#114 = ADVANCED_FACE ( 'NONE', ( #197, #43 ), #223, .T. ) ;
#115 = DIRECTION ( 'NONE',  ( 1.000000000000000000, 0.000000000000000000, 0.000000000000000000 ) ) ;
#116 = CARTESIAN_POINT ( 'NONE',  ( 0.000000000000000000, 0.000000000000000000, 5.199999999999982414 ) ) ;
#117 = DIRECTION ( 'NONE',  ( -0.000000000000000000, -0.000000000000000000, -1.000000000000000000 ) ) ;
#118 = AXIS2_PLACEMENT_3D ( 'NONE', #134, #300, #256 ) ;
#119 = PERSON_AND_ORGANIZATION ( #138, #293 ) ;
#120 = ORIENTED_EDGE ( 'NONE', *, *, #23, .T. ) ;
#121 = PRODUCT_DEFINITION_SHAPE ( 'NONE', 'NONE',  #61 ) ;
#122 = AXIS2_PLACEMENT_3D ( 'NONE', #196, #219, #60 ) ;
#123 = PERSON_AND_ORGANIZATION_ROLE ( 'design_owner' ) ;
#124 = EDGE_LOOP ( 'NONE', ( #266, #170, #7, #36 ) ) ;
#125 = PERSON_AND_ORGANIZATION_ROLE ( 'design_supplier' ) ;
#126 = VERTEX_POINT ( 'NONE', #173 ) ;
#127 = ORIENTED_EDGE ( 'NONE', *, *, #96, .F. ) ;
#128 = FACE_OUTER_BOUND ( 'NONE', #54, .T. ) ;
#129 = CIRCLE ( 'NONE', #183, 5.100000000000001421 ) ;
#130 = DIRECTION ( 'NONE',  ( 0.000000000000000000, 0.000000000000000000, -1.000000000000000000 ) ) ;
#131 = DIRECTION ( 'NONE',  ( 1.000000000000000000, 0.000000000000000000, 0.000000000000000000 ) ) ;
#132 = MANIFOLD_SOLID_BREP ( 'Zaoblit1', #3 ) ;
#133 = DIRECTION ( 'NONE',  ( -0.000000000000000000, -0.000000000000000000, -1.000000000000000000 ) ) ;
#134 = CARTESIAN_POINT ( 'NONE',  ( -5.300000000000000711, 6.490628035480972910E-16, 5.199999999999982414 ) ) ;
#135 = DIRECTION ( 'NONE',  ( 1.000000000000000000, 0.000000000000000000, 0.000000000000000000 ) ) ;
#136 = CC_DESIGN_APPROVAL ( #287, ( #39 ) ) ;
#137 = PLANE ( 'NONE',  #218 ) ;
#138 = PERSON ( 'NEURÈENÝ', 'NEURÈENÝ', 'NEURÈENÝ', ('NEURÈENÝ'), ('NEURÈENÝ'), ('NEURÈENÝ') ) ;
#139 = APPROVAL_DATE_TIME ( #52, #5 ) ;
#140 = VERTEX_POINT ( 'NONE', #14 ) ;
#141 = PERSON_AND_ORGANIZATION ( #138, #293 ) ;
#142 = ORIENTED_EDGE ( 'NONE', *, *, #33, .T. ) ;
#143 = PERSON_AND_ORGANIZATION ( #138, #293 ) ;
#144 = EDGE_LOOP ( 'NONE', ( #120, #233 ) ) ;
#145 = AXIS2_PLACEMENT_3D ( 'NONE', #229, #20, #46 ) ;
#146 = ORIENTED_EDGE ( 'NONE', *, *, #160, .F. ) ;
#147 = EDGE_CURVE ( 'NONE', #103, #240, #28, .T. ) ;
#148 = CARTESIAN_POINT ( 'NONE',  ( -8.000000000000000000, 0.000000000000000000, 5.000000000000000000 ) ) ;
#149 = CARTESIAN_POINT ( 'NONE',  ( 0.000000000000000000, 0.000000000000000000, 0.000000000000000000 ) ) ;
#150 = DIRECTION ( 'NONE',  ( 0.000000000000000000, 0.000000000000000000, 1.000000000000000000 ) ) ;
#151 = AXIS2_PLACEMENT_3D ( 'NONE', #116, #254, #230 ) ;
#152 = DIRECTION ( 'NONE',  ( 0.000000000000000000, 0.000000000000000000, 1.000000000000000000 ) ) ;
#153 = CARTESIAN_POINT ( 'NONE',  ( 0.000000000000000000, 0.000000000000000000, 5.000000000000000000 ) ) ;
#154 = CC_DESIGN_SECURITY_CLASSIFICATION ( #177, ( #39 ) ) ;
#155 = CC_DESIGN_PERSON_AND_ORGANIZATION_ASSIGNMENT ( #97, #232, ( #177 ) ) ;
#156 = DIRECTION ( 'NONE',  ( 0.000000000000000000, 0.000000000000000000, 1.000000000000000000 ) ) ;
#157 = VECTOR ( 'NONE', #133, 1000.000000000000000 ) ;
#158 = LINE ( 'NONE', #18, #69 ) ;
#159 =( LENGTH_UNIT ( ) NAMED_UNIT ( * ) SI_UNIT ( .MILLI., .METRE. ) );
#160 = EDGE_CURVE ( 'NONE', #126, #240, #292, .T. ) ;
#161 = LOCAL_TIME ( 11, 38, 46.00000000000000000, #282 ) ;
#162 = CIRCLE ( 'NONE', #275, 8.000000000000000000 ) ;
#163 = EDGE_LOOP ( 'NONE', ( #32, #98, #80, #192 ) ) ;
#164 = ADVANCED_FACE ( 'NONE', ( #8 ), #107, .T. ) ;
#165 = CALENDAR_DATE ( 2022, 20, 6 ) ;
#166 = VECTOR ( 'NONE', #268, 1000.000000000000000 ) ;
#167 = PERSON_AND_ORGANIZATION_ROLE ( 'creator' ) ;
#168 = COORDINATED_UNIVERSAL_TIME_OFFSET ( 1, 0, .AHEAD. ) ;
#169 = ORIENTED_EDGE ( 'NONE', *, *, #193, .F. ) ;
#170 = ORIENTED_EDGE ( 'NONE', *, *, #301, .F. ) ;
#171 = CC_DESIGN_APPROVAL ( #5, ( #177 ) ) ;
#172 = CARTESIAN_POINT ( 'NONE',  ( 8.000000000000000000, 9.797174393178825657E-16, 5.000000000000000000 ) ) ;
#173 = CARTESIAN_POINT ( 'NONE',  ( 8.000000000000000000, 9.797174393178825657E-16, 5.000000000000000000 ) ) ;
#174 = AXIS2_PLACEMENT_3D ( 'NONE', #245, #220, #178 ) ;
#175 = DIRECTION ( 'NONE',  ( -1.000000000000000000, 0.000000000000000000, 0.000000000000000000 ) ) ;
#176 = CC_DESIGN_PERSON_AND_ORGANIZATION_ASSIGNMENT ( #95, #125, ( #39 ) ) ;
#177 = SECURITY_CLASSIFICATION ( '', '', #186 ) ;
#178 = DIRECTION ( 'NONE',  ( 1.000000000000000000, 0.000000000000000000, 0.000000000000000000 ) ) ;
#179 = CARTESIAN_POINT ( 'NONE',  ( 5.300000000000000711, 0.000000000000000000, 5.199999999999982414 ) ) ;
#180 = DIRECTION ( 'NONE',  ( 1.000000000000000000, 0.000000000000000000, 0.000000000000000000 ) ) ;
#181 = EDGE_CURVE ( 'NONE', #27, #260, #94, .T. ) ;
#182 = DIRECTION ( 'NONE',  ( 1.000000000000000000, 0.000000000000000000, -0.000000000000000000 ) ) ;
#183 = AXIS2_PLACEMENT_3D ( 'NONE', #250, #205, #115 ) ;
#184 = CARTESIAN_POINT ( 'NONE',  ( -8.000000000000000000, 0.000000000000000000, 5.000000000000000000 ) ) ;
#185 = CYLINDRICAL_SURFACE ( 'NONE', #267, 8.000000000000000000 ) ;
#186 = SECURITY_CLASSIFICATION_LEVEL ( 'unclassified' ) ;
#187 = DIRECTION ( 'NONE',  ( 1.000000000000000000, 0.000000000000000000, 0.000000000000000000 ) ) ;
#188 = VERTEX_POINT ( 'NONE', #91 ) ;
#189 = DIRECTION ( 'NONE',  ( 0.000000000000000000, 0.000000000000000000, 1.000000000000000000 ) ) ;
#190 = VERTEX_POINT ( 'NONE', #184 ) ;
#191 = CALENDAR_DATE ( 2022, 20, 6 ) ;
#192 = ORIENTED_EDGE ( 'NONE', *, *, #291, .T. ) ;
#193 = EDGE_CURVE ( 'NONE', #188, #140, #101, .T. ) ;
#194 = ORIENTED_EDGE ( 'NONE', *, *, #251, .F. ) ;
#195 = PLANE ( 'NONE',  #211 ) ;
#196 = CARTESIAN_POINT ( 'NONE',  ( 0.000000000000000000, 0.000000000000000000, 5.000000000000000000 ) ) ;
#197 = FACE_BOUND ( 'NONE', #51, .T. ) ;
#198 = DIRECTION ( 'NONE',  ( -1.000000000000000000, 0.000000000000000000, 0.000000000000000000 ) ) ;
#199 = DIRECTION ( 'NONE',  ( 0.000000000000000000, -1.000000000000000000, 0.000000000000000000 ) ) ;
#200 = EDGE_CURVE ( 'NONE', #260, #210, #279, .T. ) ;
#201 = APPLICATION_PROTOCOL_DEFINITION ( 'international standard', 'config_control_design', 1994, #34 ) ;
#202 = CIRCLE ( 'NONE', #244, 5.100000000000001421 ) ;
#203 = AXIS2_PLACEMENT_3D ( 'NONE', #179, #199, #130 ) ;
#204 = UNCERTAINTY_MEASURE_WITH_UNIT (LENGTH_MEASURE( 1.000000000000000082E-05 ), #159, 'distance_accuracy_value', 'NONE');
#205 = DIRECTION ( 'NONE',  ( 0.000000000000000000, 0.000000000000000000, 1.000000000000000000 ) ) ;
#206 = CARTESIAN_POINT ( 'NONE',  ( 0.000000000000000000, 0.000000000000000000, 5.000000000000000000 ) ) ;
#207 = PERSON_AND_ORGANIZATION ( #138, #293 ) ;
#208 = AXIS2_PLACEMENT_3D ( 'NONE', #206, #70, #135 ) ;
#209 = APPROVAL_STATUS ( 'not_yet_approved' ) ;
#210 = VERTEX_POINT ( 'NONE', #304 ) ;
#211 = AXIS2_PLACEMENT_3D ( 'NONE', #299, #152, #87 ) ;
#212 = ORIENTED_EDGE ( 'NONE', *, *, #181, .F. ) ;
#213 = APPROVAL_STATUS ( 'not_yet_approved' ) ;
#214 = ORIENTED_EDGE ( 'NONE', *, *, #291, .F. ) ;
#215 = ORIENTED_EDGE ( 'NONE', *, *, #200, .F. ) ;
#216 = EDGE_CURVE ( 'NONE', #140, #188, #234, .T. ) ;
#217 = CARTESIAN_POINT ( 'NONE',  ( 0.000000000000000000, 0.000000000000000000, 5.000000000000000000 ) ) ;
#218 = AXIS2_PLACEMENT_3D ( 'NONE', #226, #156, #182 ) ;
#219 = DIRECTION ( 'NONE',  ( 0.000000000000000000, 0.000000000000000000, 1.000000000000000000 ) ) ;
#220 = DIRECTION ( 'NONE',  ( 0.000000000000000000, 0.000000000000000000, 1.000000000000000000 ) ) ;
#221 = DIRECTION ( 'NONE',  ( 0.000000000000000000, 0.000000000000000000, 1.000000000000000000 ) ) ;
#222 = APPROVAL_PERSON_ORGANIZATION ( #119, #1, #55 ) ;
#223 = PLANE ( 'NONE',  #253 ) ;
#224 = DIRECTION ( 'NONE',  ( -0.000000000000000000, -0.000000000000000000, -1.000000000000000000 ) ) ;
#225 = CIRCLE ( 'NONE', #122, 8.000000000000000000 ) ;
#226 = CARTESIAN_POINT ( 'NONE',  ( 0.000000000000000000, 0.000000000000000000, 0.000000000000000000 ) ) ;
#227 = CARTESIAN_POINT ( 'NONE',  ( 8.000000000000000000, 9.797174393178825657E-16, 0.000000000000000000 ) ) ;
#228 = LOCAL_TIME ( 11, 38, 46.00000000000000000, #263 ) ;
#229 = CARTESIAN_POINT ( 'NONE',  ( 0.000000000000000000, 0.000000000000000000, 635.0000000000000000 ) ) ;
#230 = DIRECTION ( 'NONE',  ( 1.000000000000000000, 0.000000000000000000, 0.000000000000000000 ) ) ;
#231 = ADVANCED_FACE ( 'NONE', ( #303 ), #137, .F. ) ;
#232 = PERSON_AND_ORGANIZATION_ROLE ( 'classification_officer' ) ;
#233 = ORIENTED_EDGE ( 'NONE', *, *, #251, .T. ) ;
#234 = CIRCLE ( 'NONE', #302, 5.300000000000000711 ) ;
#235 = MECHANICAL_CONTEXT ( 'NONE', #34, 'mechanical' ) ;
#236 = AXIS2_PLACEMENT_3D ( 'NONE', #296, #150, #85 ) ;
#237 = DATE_AND_TIME ( #286, #228 ) ;
#238 = EDGE_LOOP ( 'NONE', ( #108, #273 ) ) ;
#239 = LOCAL_TIME ( 11, 38, 46.00000000000000000, #168 ) ;
#240 = VERTEX_POINT ( 'NONE', #227 ) ;
#241 = ADVANCED_BREP_SHAPE_REPRESENTATION ( '218a', ( #132, #13 ), #65 ) ;
#242 = ADVANCED_FACE ( 'NONE', ( #92 ), #277, .T. ) ;
#243 = CARTESIAN_POINT ( 'NONE',  ( 5.100000000000001421, 6.245698675651502811E-16, 5.199999999999982414 ) ) ;
#244 = AXIS2_PLACEMENT_3D ( 'NONE', #66, #249, #270 ) ;
#245 = CARTESIAN_POINT ( 'NONE',  ( 0.000000000000000000, 0.000000000000000000, 5.199999999999982414 ) ) ;
#246 = CARTESIAN_POINT ( 'NONE',  ( 0.000000000000000000, 0.000000000000000000, 635.0000000000000000 ) ) ;
#247 = CARTESIAN_POINT ( 'NONE',  ( -8.000000000000000000, 0.000000000000000000, 0.000000000000000000 ) ) ;
#248 = ADVANCED_FACE ( 'NONE', ( #72 ), #185, .T. ) ;
#249 = DIRECTION ( 'NONE',  ( 0.000000000000000000, 0.000000000000000000, 1.000000000000000000 ) ) ;
#250 = CARTESIAN_POINT ( 'NONE',  ( 0.000000000000000000, 0.000000000000000000, 5.199999999999982414 ) ) ;
#251 = EDGE_CURVE ( 'NONE', #126, #190, #261, .T. ) ;
#252 = DIRECTION ( 'NONE',  ( -0.000000000000000000, -0.000000000000000000, -1.000000000000000000 ) ) ;
#253 = AXIS2_PLACEMENT_3D ( 'NONE', #64, #109, #298 ) ;
#254 = DIRECTION ( 'NONE',  ( 0.000000000000000000, 0.000000000000000000, 1.000000000000000000 ) ) ;
#255 = APPROVAL_PERSON_ORGANIZATION ( #76, #287, #289 ) ;
#256 = DIRECTION ( 'NONE',  ( -1.000000000000000000, 1.224646799147353454E-16, 0.000000000000000000 ) ) ;
#257 = APPROVAL_STATUS ( 'not_yet_approved' ) ;
#258 = ORIENTED_EDGE ( 'NONE', *, *, #272, .T. ) ;
#259 = CALENDAR_DATE ( 2022, 20, 6 ) ;
#260 = VERTEX_POINT ( 'NONE', #47 ) ;
#261 = CIRCLE ( 'NONE', #82, 8.000000000000000000 ) ;
#262 = CC_DESIGN_PERSON_AND_ORGANIZATION_ASSIGNMENT ( #207, #167, ( #39 ) ) ;
#263 = COORDINATED_UNIVERSAL_TIME_OFFSET ( 1, 0, .AHEAD. ) ;
#264 = ORIENTED_EDGE ( 'NONE', *, *, #96, .T. ) ;
#265 = APPROVAL_ROLE ( '' ) ;
#266 = ORIENTED_EDGE ( 'NONE', *, *, #272, .F. ) ;
#267 = AXIS2_PLACEMENT_3D ( 'NONE', #153, #224, #113 ) ;
#268 = DIRECTION ( 'NONE',  ( -0.000000000000000000, -0.000000000000000000, -1.000000000000000000 ) ) ;
#269 = CARTESIAN_POINT ( 'NONE',  ( 0.000000000000000000, 0.000000000000000000, 5.199999999999982414 ) ) ;
#270 = DIRECTION ( 'NONE',  ( 1.000000000000000000, 0.000000000000000000, 0.000000000000000000 ) ) ;
#271 = CIRCLE ( 'NONE', #118, 0.1999999999999996503 ) ;
#272 = EDGE_CURVE ( 'NONE', #210, #140, #271, .T. ) ;
#273 = ORIENTED_EDGE ( 'NONE', *, *, #10, .F. ) ;
#274 = FACE_OUTER_BOUND ( 'NONE', #59, .T. ) ;
#275 = AXIS2_PLACEMENT_3D ( 'NONE', #149, #38, #131 ) ;
#276 = EDGE_CURVE ( 'NONE', #27, #30, #158, .T. ) ;
#277 = CYLINDRICAL_SURFACE ( 'NONE', #145, 5.100000000000001421 ) ;
#278 = CARTESIAN_POINT ( 'NONE',  ( -5.100000000000001421, 0.000000000000000000, 635.0000000000000000 ) ) ;
#279 = LINE ( 'NONE', #278, #25 ) ;
#280 = DIRECTION ( 'NONE',  ( 0.000000000000000000, 0.000000000000000000, 1.000000000000000000 ) ) ;
#281 = LOCAL_TIME ( 11, 38, 46.00000000000000000, #75 ) ;
#282 = COORDINATED_UNIVERSAL_TIME_OFFSET ( 1, 0, .AHEAD. ) ;
#283 = ORIENTED_EDGE ( 'NONE', *, *, #23, .F. ) ;
#284 = PRODUCT ( '218a', '218a', '', ( #235 ) ) ;
#285 = TOROIDAL_SURFACE ( 'NONE', #297, 5.300000000000000711, 0.2000000000000000111 ) ;
#286 = CALENDAR_DATE ( 2022, 20, 6 ) ;
#287 = APPROVAL ( #213, 'NEURÈENÝ' ) ;
#288 = PERSON_AND_ORGANIZATION_ROLE ( 'creator' ) ;
#289 = APPROVAL_ROLE ( '' ) ;
#290 = ORIENTED_EDGE ( 'NONE', *, *, #160, .T. ) ;
#291 = EDGE_CURVE ( 'NONE', #210, #30, #90, .T. ) ;
#292 = LINE ( 'NONE', #172, #166 ) ;
#293 = ORGANIZATION ( 'NEURÈENÝ', 'NEURÈENÝ', '' ) ;
#294 = CARTESIAN_POINT ( 'NONE',  ( 0.000000000000000000, 0.000000000000000000, 635.0000000000000000 ) ) ;
#295 = DESIGN_CONTEXT ( 'detailed design', #41, 'design' ) ;
#296 = CARTESIAN_POINT ( 'NONE',  ( 0.000000000000000000, 0.000000000000000000, 0.000000000000000000 ) ) ;
#297 = AXIS2_PLACEMENT_3D ( 'NONE', #269, #221, #11 ) ;
#298 = DIRECTION ( 'NONE',  ( 1.000000000000000000, 0.000000000000000000, -0.000000000000000000 ) ) ;
#299 = CARTESIAN_POINT ( 'NONE',  ( 0.000000000000000000, 0.000000000000000000, 635.0000000000000000 ) ) ;
#300 = DIRECTION ( 'NONE',  ( 1.224646799147353207E-16, 1.000000000000000000, -0.000000000000000000 ) ) ;
#301 = EDGE_CURVE ( 'NONE', #30, #210, #129, .T. ) ;
#302 = AXIS2_PLACEMENT_3D ( 'NONE', #45, #252, #16 ) ;
#303 = FACE_OUTER_BOUND ( 'NONE', #238, .T. ) ;
#304 = CARTESIAN_POINT ( 'NONE',  ( -5.100000000000001421, 0.000000000000000000, 5.199999999999982414 ) ) ;
#305 = CC_DESIGN_PERSON_AND_ORGANIZATION_ASSIGNMENT ( #141, #288, ( #61 ) ) ;
#306 = CARTESIAN_POINT ( 'NONE',  ( 0.000000000000000000, 0.000000000000000000, 5.000000000000000000 ) ) ;
#307 = APPROVAL_DATE_TIME ( #29, #287 ) ;
ENDSEC;
END-ISO-10303-21;
