ISO-10303-21;
HEADER;
FILE_DESCRIPTION (( 'STEP AP203' ),
    '1' );
FILE_NAME ('97e4.STEP',
    '2022-06-20T09:47:25',
    ( '' ),
    ( '' ),
    'SwSTEP 2.0',
    'SolidWorks 2019',
    '' );
FILE_SCHEMA (( 'CONFIG_CONTROL_DESIGN' ));
ENDSEC;

DATA;
#1 = AXIS2_PLACEMENT_3D ( 'NONE', #265, #42, #146 ) ;
#2 = CALENDAR_DATE ( 2022, 20, 6 ) ;
#3 = APPLICATION_PROTOCOL_DEFINITION ( 'international standard', 'config_control_design', 1994, #123 ) ;
#4 = EDGE_LOOP ( 'NONE', ( #71, #291 ) ) ;
#5 = ADVANCED_FACE ( 'NONE', ( #76 ), #174, .F. ) ;
#6 = APPROVAL_ROLE ( '' ) ;
#7 = AXIS2_PLACEMENT_3D ( 'NONE', #70, #8, #244 ) ;
#8 = DIRECTION ( 'NONE',  ( 0.000000000000000000, 0.000000000000000000, 1.000000000000000000 ) ) ;
#9 = DIRECTION ( 'NONE',  ( 1.000000000000000000, 0.000000000000000000, 0.000000000000000000 ) ) ;
#10 = ORIENTED_EDGE ( 'NONE', *, *, #230, .T. ) ;
#11 = EDGE_CURVE ( 'NONE', #132, #53, #134, .T. ) ;
#12 = AXIS2_PLACEMENT_3D ( 'NONE', #192, #188, #117 ) ;
#13 = PLANE ( 'NONE',  #68 ) ;
#14 = SECURITY_CLASSIFICATION ( '', '', #153 ) ;
#15 = DIRECTION ( 'NONE',  ( 0.000000000000000000, 0.000000000000000000, 1.000000000000000000 ) ) ;
#16 = CARTESIAN_POINT ( 'NONE',  ( -7.000000000000000000, 0.000000000000000000, 0.000000000000000000 ) ) ;
#17 = LOCAL_TIME ( 11, 47, 25.00000000000000000, #29 ) ;
#18 = DIRECTION ( 'NONE',  ( 0.000000000000000000, 0.000000000000000000, 1.000000000000000000 ) ) ;
#19 = DIRECTION ( 'NONE',  ( -1.000000000000000000, 0.000000000000000000, 0.000000000000000000 ) ) ;
#20 = ADVANCED_FACE ( 'NONE', ( #184, #205 ), #301, .T. ) ;
#21 = APPROVAL_STATUS ( 'not_yet_approved' ) ;
#22 = CIRCLE ( 'NONE', #152, 4.299999999999998934 ) ;
#23 = CIRCLE ( 'NONE', #282, 7.000000000000000000 ) ;
#24 = PERSON_AND_ORGANIZATION ( #166, #130 ) ;
#25 = VERTEX_POINT ( 'NONE', #158 ) ;
#26 = PERSON_AND_ORGANIZATION_ROLE ( 'creator' ) ;
#27 = EDGE_CURVE ( 'NONE', #67, #31, #22, .T. ) ;
#28 = ORIENTED_EDGE ( 'NONE', *, *, #11, .F. ) ;
#29 = COORDINATED_UNIVERSAL_TIME_OFFSET ( 1, 0, .AHEAD. ) ;
#30 =( GEOMETRIC_REPRESENTATION_CONTEXT ( 3 ) GLOBAL_UNCERTAINTY_ASSIGNED_CONTEXT ( ( #120 ) ) GLOBAL_UNIT_ASSIGNED_CONTEXT ( ( #172, #288, #222 ) ) REPRESENTATION_CONTEXT ( 'NONE', 'WORKASPACE' ) );
#31 = VERTEX_POINT ( 'NONE', #186 ) ;
#32 = CARTESIAN_POINT ( 'NONE',  ( 4.299999999999998934, 0.000000000000000000, 4.999999999999998224 ) ) ;
#33 = CC_DESIGN_DATE_AND_TIME_ASSIGNMENT ( #274, #51, ( #14 ) ) ;
#34 = CYLINDRICAL_SURFACE ( 'NONE', #239, 4.099999999999999645 ) ;
#35 = ORIENTED_EDGE ( 'NONE', *, *, #11, .T. ) ;
#36 = CARTESIAN_POINT ( 'NONE',  ( 4.099999999999999645, 5.021051876504147385E-16, 130.0000000000000000 ) ) ;
#37 = DIRECTION ( 'NONE',  ( 0.000000000000000000, 0.000000000000000000, -1.000000000000000000 ) ) ;
#38 = SHAPE_DEFINITION_REPRESENTATION ( #106, #246 ) ;
#39 = CARTESIAN_POINT ( 'NONE',  ( -4.099999999999999645, 0.000000000000000000, 5.199999999999996625 ) ) ;
#40 = AXIS2_PLACEMENT_3D ( 'NONE', #281, #121, #37 ) ;
#41 = CYLINDRICAL_SURFACE ( 'NONE', #292, 4.099999999999999645 ) ;
#42 = DIRECTION ( 'NONE',  ( -0.000000000000000000, -0.000000000000000000, -1.000000000000000000 ) ) ;
#43 = APPROVAL_DATE_TIME ( #180, #176 ) ;
#44 = VERTEX_POINT ( 'NONE', #108 ) ;
#45 = VECTOR ( 'NONE', #63, 1000.000000000000000 ) ;
#46 = MECHANICAL_CONTEXT ( 'NONE', #123, 'mechanical' ) ;
#47 = CARTESIAN_POINT ( 'NONE',  ( 0.000000000000000000, 0.000000000000000000, 0.000000000000000000 ) ) ;
#48 = ORIENTED_EDGE ( 'NONE', *, *, #293, .T. ) ;
#49 = PERSON_AND_ORGANIZATION_ROLE ( 'design_supplier' ) ;
#50 = ORIENTED_EDGE ( 'NONE', *, *, #249, .F. ) ;
#51 = DATE_TIME_ROLE ( 'classification_date' ) ;
#52 = APPROVAL ( #224, 'NEURÈENÝ' ) ;
#53 = VERTEX_POINT ( 'NONE', #278 ) ;
#54 = DIRECTION ( 'NONE',  ( 1.000000000000000000, 0.000000000000000000, -0.000000000000000000 ) ) ;
#55 = CC_DESIGN_PERSON_AND_ORGANIZATION_ASSIGNMENT ( #290, #26, ( #114 ) ) ;
#56 = CIRCLE ( 'NONE', #248, 4.099999999999999645 ) ;
#57 = DIRECTION ( 'NONE',  ( -1.000000000000000000, 0.000000000000000000, 0.000000000000000000 ) ) ;
#58 = DIRECTION ( 'NONE',  ( -0.000000000000000000, -0.000000000000000000, -1.000000000000000000 ) ) ;
#59 = ORIENTED_EDGE ( 'NONE', *, *, #151, .F. ) ;
#60 = CARTESIAN_POINT ( 'NONE',  ( -4.299999999999998934, 5.265981236333617484E-16, 5.199999999999996625 ) ) ;
#61 = DIRECTION ( 'NONE',  ( -0.000000000000000000, -0.000000000000000000, -1.000000000000000000 ) ) ;
#62 = DIRECTION ( 'NONE',  ( 0.000000000000000000, 0.000000000000000000, 1.000000000000000000 ) ) ;
#63 = DIRECTION ( 'NONE',  ( -0.000000000000000000, -0.000000000000000000, -1.000000000000000000 ) ) ;
#64 = EDGE_CURVE ( 'NONE', #210, #148, #147, .T. ) ;
#65 = CC_DESIGN_SECURITY_CLASSIFICATION ( #14, ( #133 ) ) ;
#66 = CARTESIAN_POINT ( 'NONE',  ( 0.000000000000000000, 0.000000000000000000, 5.199999999999996625 ) ) ;
#67 = VERTEX_POINT ( 'NONE', #32 ) ;
#68 = AXIS2_PLACEMENT_3D ( 'NONE', #82, #18, #211 ) ;
#69 = CIRCLE ( 'NONE', #93, 4.099999999999999645 ) ;
#70 = CARTESIAN_POINT ( 'NONE',  ( 0.000000000000000000, 0.000000000000000000, 0.000000000000000000 ) ) ;
#71 = ORIENTED_EDGE ( 'NONE', *, *, #27, .T. ) ;
#72 = ORIENTED_EDGE ( 'NONE', *, *, #230, .F. ) ;
#73 = ORIENTED_EDGE ( 'NONE', *, *, #280, .T. ) ;
#74 = ADVANCED_FACE ( 'NONE', ( #161 ), #34, .T. ) ;
#75 = EDGE_LOOP ( 'NONE', ( #112, #271, #163, #202 ) ) ;
#76 = FACE_OUTER_BOUND ( 'NONE', #298, .T. ) ;
#77 = EDGE_CURVE ( 'NONE', #25, #245, #135, .T. ) ;
#78 = DIRECTION ( 'NONE',  ( -0.000000000000000000, -0.000000000000000000, -1.000000000000000000 ) ) ;
#79 = CIRCLE ( 'NONE', #92, 4.099999999999999645 ) ;
#80 = ORIENTED_EDGE ( 'NONE', *, *, #280, .F. ) ;
#81 = AXIS2_PLACEMENT_3D ( 'NONE', #47, #243, #268 ) ;
#82 = CARTESIAN_POINT ( 'NONE',  ( 0.000000000000000000, 0.000000000000000000, 0.000000000000000000 ) ) ;
#83 = APPLICATION_CONTEXT ( 'configuration controlled 3d designs of mechanical parts and assemblies' ) ;
#84 = DIRECTION ( 'NONE',  ( 0.000000000000000000, 0.000000000000000000, 1.000000000000000000 ) ) ;
#85 = CALENDAR_DATE ( 2022, 20, 6 ) ;
#86 = CYLINDRICAL_SURFACE ( 'NONE', #12, 7.000000000000000000 ) ;
#87 = CC_DESIGN_APPROVAL ( #176, ( #114 ) ) ;
#88 = CARTESIAN_POINT ( 'NONE',  ( 7.000000000000000000, 8.572527594031473190E-16, 5.000000000000000000 ) ) ;
#89 = CC_DESIGN_PERSON_AND_ORGANIZATION_ASSIGNMENT ( #131, #247, ( #14 ) ) ;
#90 = DIRECTION ( 'NONE',  ( 1.224646799147353207E-16, 1.000000000000000000, -0.000000000000000000 ) ) ;
#91 = DIRECTION ( 'NONE',  ( 1.000000000000000000, 0.000000000000000000, 0.000000000000000000 ) ) ;
#92 = AXIS2_PLACEMENT_3D ( 'NONE', #170, #286, #169 ) ;
#93 = AXIS2_PLACEMENT_3D ( 'NONE', #122, #219, #307 ) ;
#94 = PERSON_AND_ORGANIZATION ( #166, #130 ) ;
#95 = COORDINATED_UNIVERSAL_TIME_OFFSET ( 1, 0, .AHEAD. ) ;
#96 = ORIENTED_EDGE ( 'NONE', *, *, #304, .T. ) ;
#97 = APPROVAL_ROLE ( '' ) ;
#98 = ORIENTED_EDGE ( 'NONE', *, *, #162, .T. ) ;
#99 = CALENDAR_DATE ( 2022, 20, 6 ) ;
#100 = ORIENTED_EDGE ( 'NONE', *, *, #64, .F. ) ;
#101 = PRODUCT_RELATED_PRODUCT_CATEGORY ( 'detail', '', ( #297 ) ) ;
#102 = DATE_AND_TIME ( #2, #119 ) ;
#103 = ORIENTED_EDGE ( 'NONE', *, *, #304, .F. ) ;
#104 = AXIS2_PLACEMENT_3D ( 'NONE', #216, #61, #238 ) ;
#105 = CIRCLE ( 'NONE', #7, 7.000000000000000000 ) ;
#106 = PRODUCT_DEFINITION_SHAPE ( 'NONE', 'NONE',  #114 ) ;
#107 = ORIENTED_EDGE ( 'NONE', *, *, #206, .T. ) ;
#108 = CARTESIAN_POINT ( 'NONE',  ( 7.000000000000000000, 8.572527594031473190E-16, 0.000000000000000000 ) ) ;
#109 = CARTESIAN_POINT ( 'NONE',  ( 0.000000000000000000, 0.000000000000000000, 5.199999999999996625 ) ) ;
#110 = AXIS2_PLACEMENT_3D ( 'NONE', #183, #256, #54 ) ;
#111 = CIRCLE ( 'NONE', #226, 4.099999999999999645 ) ;
#112 = ORIENTED_EDGE ( 'NONE', *, *, #193, .F. ) ;
#113 = CC_DESIGN_APPROVAL ( #52, ( #133 ) ) ;
#114 = PRODUCT_DEFINITION ( 'NEZNÁMÝ', '', #133, #217 ) ;
#115 = CARTESIAN_POINT ( 'NONE',  ( 0.000000000000000000, 0.000000000000000000, 5.000000000000000000 ) ) ;
#116 = CARTESIAN_POINT ( 'NONE',  ( 7.000000000000000000, 8.572527594031473190E-16, 5.000000000000000000 ) ) ;
#117 = DIRECTION ( 'NONE',  ( -1.000000000000000000, 0.000000000000000000, 0.000000000000000000 ) ) ;
#118 = ADVANCED_FACE ( 'NONE', ( #231 ), #13, .F. ) ;
#119 = LOCAL_TIME ( 11, 47, 25.00000000000000000, #240 ) ;
#120 = UNCERTAINTY_MEASURE_WITH_UNIT (LENGTH_MEASURE( 1.000000000000000082E-05 ), #172, 'distance_accuracy_value', 'NONE');
#121 = DIRECTION ( 'NONE',  ( 0.000000000000000000, -1.000000000000000000, 0.000000000000000000 ) ) ;
#122 = CARTESIAN_POINT ( 'NONE',  ( 0.000000000000000000, 0.000000000000000000, 130.0000000000000000 ) ) ;
#123 = APPLICATION_CONTEXT ( 'configuration controlled 3d designs of mechanical parts and assemblies' ) ;
#124 = DIRECTION ( 'NONE',  ( 1.000000000000000000, 0.000000000000000000, 0.000000000000000000 ) ) ;
#125 = MANIFOLD_SOLID_BREP ( 'Zaoblit1', #273 ) ;
#126 = ORIENTED_EDGE ( 'NONE', *, *, #151, .T. ) ;
#127 = PERSON_AND_ORGANIZATION ( #166, #130 ) ;
#128 = DATE_TIME_ROLE ( 'creation_date' ) ;
#129 = ADVANCED_FACE ( 'NONE', ( #212 ), #251, .F. ) ;
#130 = ORGANIZATION ( 'NEURÈENÝ', 'NEURÈENÝ', '' ) ;
#131 = PERSON_AND_ORGANIZATION ( #166, #130 ) ;
#132 = VERTEX_POINT ( 'NONE', #36 ) ;
#133 = PRODUCT_DEFINITION_FORMATION_WITH_SPECIFIED_SOURCE ( 'LIBOVOLNÝ', '', #297, .NOT_KNOWN. ) ;
#134 = LINE ( 'NONE', #139, #213 ) ;
#135 = LINE ( 'NONE', #136, #203 ) ;
#136 = CARTESIAN_POINT ( 'NONE',  ( -4.099999999999999645, 0.000000000000000000, 130.0000000000000000 ) ) ;
#137 = ADVANCED_FACE ( 'NONE', ( #140 ), #86, .T. ) ;
#138 = AXIS2_PLACEMENT_3D ( 'NONE', #234, #189, #305 ) ;
#139 = CARTESIAN_POINT ( 'NONE',  ( 4.099999999999999645, 5.021051876504147385E-16, 130.0000000000000000 ) ) ;
#140 = FACE_OUTER_BOUND ( 'NONE', #289, .T. ) ;
#141 = APPROVAL_ROLE ( '' ) ;
#142 = PLANE ( 'NONE',  #138 ) ;
#143 = EDGE_CURVE ( 'NONE', #148, #156, #262, .T. ) ;
#144 = DIRECTION ( 'NONE',  ( -1.000000000000000000, 1.224646799147353454E-16, 0.000000000000000000 ) ) ;
#145 = CARTESIAN_POINT ( 'NONE',  ( 0.000000000000000000, 0.000000000000000000, 5.199999999999996625 ) ) ;
#146 = DIRECTION ( 'NONE',  ( -1.000000000000000000, 0.000000000000000000, 0.000000000000000000 ) ) ;
#147 = CIRCLE ( 'NONE', #157, 7.000000000000000000 ) ;
#148 = VERTEX_POINT ( 'NONE', #235 ) ;
#149 = CIRCLE ( 'NONE', #269, 0.1999999999999996503 ) ;
#150 = APPROVAL_STATUS ( 'not_yet_approved' ) ;
#151 = EDGE_CURVE ( 'NONE', #210, #44, #215, .T. ) ;
#152 = AXIS2_PLACEMENT_3D ( 'NONE', #229, #78, #9 ) ;
#153 = SECURITY_CLASSIFICATION_LEVEL ( 'unclassified' ) ;
#154 = LOCAL_TIME ( 11, 47, 25.00000000000000000, #95 ) ;
#155 = PERSON_AND_ORGANIZATION ( #166, #130 ) ;
#156 = VERTEX_POINT ( 'NONE', #16 ) ;
#157 = AXIS2_PLACEMENT_3D ( 'NONE', #232, #15, #204 ) ;
#158 = CARTESIAN_POINT ( 'NONE',  ( -4.099999999999999645, 0.000000000000000000, 130.0000000000000000 ) ) ;
#159 = APPROVAL_PERSON_ORGANIZATION ( #24, #176, #97 ) ;
#160 = DIRECTION ( 'NONE',  ( -0.000000000000000000, -0.000000000000000000, -1.000000000000000000 ) ) ;
#161 = FACE_OUTER_BOUND ( 'NONE', #178, .T. ) ;
#162 = EDGE_CURVE ( 'NONE', #53, #67, #191, .T. ) ;
#163 = ORIENTED_EDGE ( 'NONE', *, *, #27, .F. ) ;
#164 = CYLINDRICAL_SURFACE ( 'NONE', #1, 7.000000000000000000 ) ;
#165 = APPROVAL_DATE_TIME ( #257, #236 ) ;
#166 = PERSON ( 'NEURÈENÝ', 'NEURÈENÝ', 'NEURÈENÝ', ('NEURÈENÝ'), ('NEURÈENÝ'), ('NEURÈENÝ') ) ;
#167 = DIRECTION ( 'NONE',  ( 0.000000000000000000, 0.000000000000000000, 1.000000000000000000 ) ) ;
#168 = CARTESIAN_POINT ( 'NONE',  ( 0.000000000000000000, 0.000000000000000000, 0.000000000000000000 ) ) ;
#169 = DIRECTION ( 'NONE',  ( 1.000000000000000000, 0.000000000000000000, 0.000000000000000000 ) ) ;
#170 = CARTESIAN_POINT ( 'NONE',  ( 0.000000000000000000, 0.000000000000000000, 130.0000000000000000 ) ) ;
#171 = EDGE_CURVE ( 'NONE', #31, #67, #208, .T. ) ;
#172 =( LENGTH_UNIT ( ) NAMED_UNIT ( * ) SI_UNIT ( .MILLI., .METRE. ) );
#173 = EDGE_LOOP ( 'NONE', ( #59, #279, #253, #96 ) ) ;
#174 = TOROIDAL_SURFACE ( 'NONE', #258, 4.299999999999998934, 0.2000000000000000111 ) ;
#175 = APPROVAL_PERSON_ORGANIZATION ( #155, #236, #141 ) ;
#176 = APPROVAL ( #150, 'NEURÈENÝ' ) ;
#177 = PERSON_AND_ORGANIZATION_ROLE ( 'design_owner' ) ;
#178 = EDGE_LOOP ( 'NONE', ( #28, #80, #250, #299 ) ) ;
#179 = PERSON_AND_ORGANIZATION ( #166, #130 ) ;
#180 = DATE_AND_TIME ( #197, #154 ) ;
#181 = LOCAL_TIME ( 11, 47, 25.00000000000000000, #266 ) ;
#182 = EDGE_LOOP ( 'NONE', ( #48, #223 ) ) ;
#183 = CARTESIAN_POINT ( 'NONE',  ( 0.000000000000000000, 0.000000000000000000, 5.000000000000000000 ) ) ;
#184 = FACE_BOUND ( 'NONE', #4, .T. ) ;
#185 = CC_DESIGN_DATE_AND_TIME_ASSIGNMENT ( #102, #128, ( #114 ) ) ;
#186 = CARTESIAN_POINT ( 'NONE',  ( -4.299999999999998934, 5.265981236333617484E-16, 4.999999999999998224 ) ) ;
#187 = DIRECTION ( 'NONE',  ( -0.000000000000000000, -0.000000000000000000, -1.000000000000000000 ) ) ;
#188 = DIRECTION ( 'NONE',  ( -0.000000000000000000, -0.000000000000000000, -1.000000000000000000 ) ) ;
#189 = DIRECTION ( 'NONE',  ( 0.000000000000000000, 0.000000000000000000, 1.000000000000000000 ) ) ;
#190 = FACE_OUTER_BOUND ( 'NONE', #225, .T. ) ;
#191 = CIRCLE ( 'NONE', #40, 0.1999999999999996503 ) ;
#192 = CARTESIAN_POINT ( 'NONE',  ( 0.000000000000000000, 0.000000000000000000, 5.000000000000000000 ) ) ;
#193 = EDGE_CURVE ( 'NONE', #245, #53, #56, .T. ) ;
#194 = DATE_AND_TIME ( #99, #181 ) ;
#195 = EDGE_CURVE ( 'NONE', #53, #245, #111, .T. ) ;
#196 = AXIS2_PLACEMENT_3D ( 'NONE', #303, #62, #283 ) ;
#197 = CALENDAR_DATE ( 2022, 20, 6 ) ;
#198 = LOCAL_TIME ( 11, 47, 25.00000000000000000, #214 ) ;
#199 = APPROVAL_DATE_TIME ( #194, #52 ) ;
#200 = ORIENTED_EDGE ( 'NONE', *, *, #143, .F. ) ;
#201 = CALENDAR_DATE ( 2022, 20, 6 ) ;
#202 = ORIENTED_EDGE ( 'NONE', *, *, #162, .F. ) ;
#203 = VECTOR ( 'NONE', #58, 1000.000000000000000 ) ;
#204 = DIRECTION ( 'NONE',  ( 1.000000000000000000, 0.000000000000000000, 0.000000000000000000 ) ) ;
#205 = FACE_OUTER_BOUND ( 'NONE', #182, .T. ) ;
#206 = EDGE_CURVE ( 'NONE', #132, #25, #79, .T. ) ;
#207 = EDGE_LOOP ( 'NONE', ( #73, #107 ) ) ;
#208 = CIRCLE ( 'NONE', #104, 4.299999999999998934 ) ;
#209 = CC_DESIGN_APPROVAL ( #236, ( #14 ) ) ;
#210 = VERTEX_POINT ( 'NONE', #116 ) ;
#211 = DIRECTION ( 'NONE',  ( 1.000000000000000000, 0.000000000000000000, -0.000000000000000000 ) ) ;
#212 = FACE_OUTER_BOUND ( 'NONE', #75, .T. ) ;
#213 = VECTOR ( 'NONE', #276, 1000.000000000000000 ) ;
#214 = COORDINATED_UNIVERSAL_TIME_OFFSET ( 1, 0, .AHEAD. ) ;
#215 = LINE ( 'NONE', #88, #45 ) ;
#216 = CARTESIAN_POINT ( 'NONE',  ( 0.000000000000000000, 0.000000000000000000, 5.000000000000000000 ) ) ;
#217 = DESIGN_CONTEXT ( 'detailed design', #83, 'design' ) ;
#218 = CC_DESIGN_PERSON_AND_ORGANIZATION_ASSIGNMENT ( #179, #49, ( #133 ) ) ;
#219 = DIRECTION ( 'NONE',  ( 0.000000000000000000, 0.000000000000000000, 1.000000000000000000 ) ) ;
#220 = VECTOR ( 'NONE', #302, 1000.000000000000000 ) ;
#221 = APPLICATION_PROTOCOL_DEFINITION ( 'international standard', 'config_control_design', 1994, #83 ) ;
#222 =( NAMED_UNIT ( * ) SI_UNIT ( $, .STERADIAN. ) SOLID_ANGLE_UNIT ( ) );
#223 = ORIENTED_EDGE ( 'NONE', *, *, #64, .T. ) ;
#224 = APPROVAL_STATUS ( 'not_yet_approved' ) ;
#225 = EDGE_LOOP ( 'NONE', ( #259, #35, #228, #300 ) ) ;
#226 = AXIS2_PLACEMENT_3D ( 'NONE', #145, #167, #261 ) ;
#227 = ADVANCED_FACE ( 'NONE', ( #306 ), #142, .T. ) ;
#228 = ORIENTED_EDGE ( 'NONE', *, *, #195, .T. ) ;
#229 = CARTESIAN_POINT ( 'NONE',  ( 0.000000000000000000, 0.000000000000000000, 5.000000000000000000 ) ) ;
#230 = EDGE_CURVE ( 'NONE', #44, #156, #23, .T. ) ;
#231 = FACE_OUTER_BOUND ( 'NONE', #275, .T. ) ;
#232 = CARTESIAN_POINT ( 'NONE',  ( 0.000000000000000000, 0.000000000000000000, 5.000000000000000000 ) ) ;
#233 = DIRECTION ( 'NONE',  ( 0.000000000000000000, 0.000000000000000000, 1.000000000000000000 ) ) ;
#234 = CARTESIAN_POINT ( 'NONE',  ( 0.000000000000000000, 0.000000000000000000, 130.0000000000000000 ) ) ;
#235 = CARTESIAN_POINT ( 'NONE',  ( -7.000000000000000000, 0.000000000000000000, 5.000000000000000000 ) ) ;
#236 = APPROVAL ( #21, 'NEURÈENÝ' ) ;
#237 = CARTESIAN_POINT ( 'NONE',  ( 0.000000000000000000, 0.000000000000000000, 130.0000000000000000 ) ) ;
#238 = DIRECTION ( 'NONE',  ( 1.000000000000000000, 0.000000000000000000, 0.000000000000000000 ) ) ;
#239 = AXIS2_PLACEMENT_3D ( 'NONE', #277, #160, #57 ) ;
#240 = COORDINATED_UNIVERSAL_TIME_OFFSET ( 1, 0, .AHEAD. ) ;
#241 = ORIENTED_EDGE ( 'NONE', *, *, #195, .F. ) ;
#242 = CIRCLE ( 'NONE', #254, 7.000000000000000000 ) ;
#243 = DIRECTION ( 'NONE',  ( 0.000000000000000000, 0.000000000000000000, 1.000000000000000000 ) ) ;
#244 = DIRECTION ( 'NONE',  ( 1.000000000000000000, 0.000000000000000000, 0.000000000000000000 ) ) ;
#245 = VERTEX_POINT ( 'NONE', #39 ) ;
#246 = ADVANCED_BREP_SHAPE_REPRESENTATION ( '97e4', ( #125, #81 ), #30 ) ;
#247 = PERSON_AND_ORGANIZATION_ROLE ( 'classification_officer' ) ;
#248 = AXIS2_PLACEMENT_3D ( 'NONE', #66, #233, #91 ) ;
#249 = EDGE_CURVE ( 'NONE', #245, #31, #149, .T. ) ;
#250 = ORIENTED_EDGE ( 'NONE', *, *, #77, .T. ) ;
#251 = TOROIDAL_SURFACE ( 'NONE', #196, 4.299999999999998934, 0.2000000000000000111 ) ;
#252 = ADVANCED_FACE ( 'NONE', ( #190 ), #41, .T. ) ;
#253 = ORIENTED_EDGE ( 'NONE', *, *, #143, .T. ) ;
#254 = AXIS2_PLACEMENT_3D ( 'NONE', #115, #260, #124 ) ;
#255 = DIRECTION ( 'NONE',  ( 1.000000000000000000, 0.000000000000000000, 0.000000000000000000 ) ) ;
#256 = DIRECTION ( 'NONE',  ( 0.000000000000000000, 0.000000000000000000, 1.000000000000000000 ) ) ;
#257 = DATE_AND_TIME ( #85, #198 ) ;
#258 = AXIS2_PLACEMENT_3D ( 'NONE', #109, #296, #255 ) ;
#259 = ORIENTED_EDGE ( 'NONE', *, *, #206, .F. ) ;
#260 = DIRECTION ( 'NONE',  ( 0.000000000000000000, 0.000000000000000000, 1.000000000000000000 ) ) ;
#261 = DIRECTION ( 'NONE',  ( 1.000000000000000000, 0.000000000000000000, 0.000000000000000000 ) ) ;
#262 = LINE ( 'NONE', #285, #220 ) ;
#263 = CC_DESIGN_PERSON_AND_ORGANIZATION_ASSIGNMENT ( #295, #294, ( #133 ) ) ;
#264 = DIRECTION ( 'NONE',  ( 1.000000000000000000, 0.000000000000000000, 0.000000000000000000 ) ) ;
#265 = CARTESIAN_POINT ( 'NONE',  ( 0.000000000000000000, 0.000000000000000000, 5.000000000000000000 ) ) ;
#266 = COORDINATED_UNIVERSAL_TIME_OFFSET ( 1, 0, .AHEAD. ) ;
#267 = ORIENTED_EDGE ( 'NONE', *, *, #171, .F. ) ;
#268 = DIRECTION ( 'NONE',  ( 1.000000000000000000, 0.000000000000000000, 0.000000000000000000 ) ) ;
#269 = AXIS2_PLACEMENT_3D ( 'NONE', #60, #90, #144 ) ;
#270 = APPROVAL_PERSON_ORGANIZATION ( #94, #52, #6 ) ;
#271 = ORIENTED_EDGE ( 'NONE', *, *, #249, .T. ) ;
#272 = CC_DESIGN_PERSON_AND_ORGANIZATION_ASSIGNMENT ( #127, #177, ( #297 ) ) ;
#273 = CLOSED_SHELL ( 'NONE', ( #129, #252, #137, #284, #20, #118, #74, #227, #5 ) ) ;
#274 = DATE_AND_TIME ( #201, #17 ) ;
#275 = EDGE_LOOP ( 'NONE', ( #103, #72 ) ) ;
#276 = DIRECTION ( 'NONE',  ( -0.000000000000000000, -0.000000000000000000, -1.000000000000000000 ) ) ;
#277 = CARTESIAN_POINT ( 'NONE',  ( 0.000000000000000000, 0.000000000000000000, 130.0000000000000000 ) ) ;
#278 = CARTESIAN_POINT ( 'NONE',  ( 4.099999999999999645, 5.021051876504147385E-16, 5.199999999999996625 ) ) ;
#279 = ORIENTED_EDGE ( 'NONE', *, *, #293, .F. ) ;
#280 = EDGE_CURVE ( 'NONE', #25, #132, #69, .T. ) ;
#281 = CARTESIAN_POINT ( 'NONE',  ( 4.299999999999998934, 0.000000000000000000, 5.199999999999996625 ) ) ;
#282 = AXIS2_PLACEMENT_3D ( 'NONE', #168, #84, #264 ) ;
#283 = DIRECTION ( 'NONE',  ( 1.000000000000000000, 0.000000000000000000, 0.000000000000000000 ) ) ;
#284 = ADVANCED_FACE ( 'NONE', ( #287 ), #164, .T. ) ;
#285 = CARTESIAN_POINT ( 'NONE',  ( -7.000000000000000000, 0.000000000000000000, 5.000000000000000000 ) ) ;
#286 = DIRECTION ( 'NONE',  ( 0.000000000000000000, 0.000000000000000000, 1.000000000000000000 ) ) ;
#287 = FACE_OUTER_BOUND ( 'NONE', #173, .T. ) ;
#288 =( NAMED_UNIT ( * ) PLANE_ANGLE_UNIT ( ) SI_UNIT ( $, .RADIAN. ) );
#289 = EDGE_LOOP ( 'NONE', ( #100, #126, #10, #200 ) ) ;
#290 = PERSON_AND_ORGANIZATION ( #166, #130 ) ;
#291 = ORIENTED_EDGE ( 'NONE', *, *, #171, .T. ) ;
#292 = AXIS2_PLACEMENT_3D ( 'NONE', #237, #187, #19 ) ;
#293 = EDGE_CURVE ( 'NONE', #148, #210, #242, .T. ) ;
#294 = PERSON_AND_ORGANIZATION_ROLE ( 'creator' ) ;
#295 = PERSON_AND_ORGANIZATION ( #166, #130 ) ;
#296 = DIRECTION ( 'NONE',  ( 0.000000000000000000, 0.000000000000000000, 1.000000000000000000 ) ) ;
#297 = PRODUCT ( '97e4', '97e4', '', ( #46 ) ) ;
#298 = EDGE_LOOP ( 'NONE', ( #50, #241, #98, #267 ) ) ;
#299 = ORIENTED_EDGE ( 'NONE', *, *, #193, .T. ) ;
#300 = ORIENTED_EDGE ( 'NONE', *, *, #77, .F. ) ;
#301 = PLANE ( 'NONE',  #110 ) ;
#302 = DIRECTION ( 'NONE',  ( -0.000000000000000000, -0.000000000000000000, -1.000000000000000000 ) ) ;
#303 = CARTESIAN_POINT ( 'NONE',  ( 0.000000000000000000, 0.000000000000000000, 5.199999999999996625 ) ) ;
#304 = EDGE_CURVE ( 'NONE', #156, #44, #105, .T. ) ;
#305 = DIRECTION ( 'NONE',  ( 1.000000000000000000, 0.000000000000000000, -0.000000000000000000 ) ) ;
#306 = FACE_OUTER_BOUND ( 'NONE', #207, .T. ) ;
#307 = DIRECTION ( 'NONE',  ( 1.000000000000000000, 0.000000000000000000, 0.000000000000000000 ) ) ;
ENDSEC;
END-ISO-10303-21;
