ISO-10303-21;
HEADER;
FILE_DESCRIPTION (( 'STEP AP203' ),
    '1' );
FILE_NAME ('cb0b.STEP',
    '2022-06-20T09:56:34',
    ( '' ),
    ( '' ),
    'SwSTEP 2.0',
    'SolidWorks 2019',
    '' );
FILE_SCHEMA (( 'CONFIG_CONTROL_DESIGN' ));
ENDSEC;

DATA;
#1 = EDGE_CURVE ( 'NONE', #58, #7, #245, .T. ) ;
#2 = LOCAL_TIME ( 11, 56, 34.00000000000000000, #256 ) ;
#3 = ORIENTED_EDGE ( 'NONE', *, *, #19, .T. ) ;
#4 = PERSON_AND_ORGANIZATION ( #28, #264 ) ;
#5 = ADVANCED_FACE ( 'NONE', ( #20 ), #235, .T. ) ;
#6 = EDGE_CURVE ( 'NONE', #36, #287, #142, .T. ) ;
#7 = VERTEX_POINT ( 'NONE', #228 ) ;
#8 = CC_DESIGN_PERSON_AND_ORGANIZATION_ASSIGNMENT ( #90, #185, ( #285 ) ) ;
#9 = ORIENTED_EDGE ( 'NONE', *, *, #139, .T. ) ;
#10 = DIRECTION ( 'NONE',  ( 0.000000000000000000, -1.000000000000000000, 0.000000000000000000 ) ) ;
#11 = APPLICATION_CONTEXT ( 'configuration controlled 3d designs of mechanical parts and assemblies' ) ;
#12 = CARTESIAN_POINT ( 'NONE',  ( 0.000000000000000000, 0.000000000000000000, 205.0000000000000284 ) ) ;
#13 = AXIS2_PLACEMENT_3D ( 'NONE', #188, #281, #276 ) ;
#14 =( NAMED_UNIT ( * ) SI_UNIT ( $, .STERADIAN. ) SOLID_ANGLE_UNIT ( ) );
#15 = CARTESIAN_POINT ( 'NONE',  ( 0.000000000000000000, 0.000000000000000000, 0.000000000000000000 ) ) ;
#16 = PERSON_AND_ORGANIZATION ( #28, #264 ) ;
#17 = CYLINDRICAL_SURFACE ( 'NONE', #294, 6.000000000000000888 ) ;
#18 = CALENDAR_DATE ( 2022, 20, 6 ) ;
#19 = EDGE_CURVE ( 'NONE', #287, #58, #151, .T. ) ;
#20 = FACE_OUTER_BOUND ( 'NONE', #244, .T. ) ;
#21 = PRODUCT_RELATED_PRODUCT_CATEGORY ( 'detail', '', ( #23 ) ) ;
#22 = CARTESIAN_POINT ( 'NONE',  ( -6.000000000000000888, 0.000000000000000000, 5.000000000000000000 ) ) ;
#23 = PRODUCT ( 'cb0b', 'cb0b', '', ( #254 ) ) ;
#24 = CARTESIAN_POINT ( 'NONE',  ( 0.000000000000000000, 0.000000000000000000, 0.000000000000000000 ) ) ;
#25 = CARTESIAN_POINT ( 'NONE',  ( 3.100000000000000089, 3.796405077356794918E-16, 205.0000000000000284 ) ) ;
#26 = DIRECTION ( 'NONE',  ( 1.224646799147353207E-16, 1.000000000000000000, -0.000000000000000000 ) ) ;
#27 = PRODUCT_DEFINITION_SHAPE ( 'NONE', 'NONE',  #195 ) ;
#28 = PERSON ( 'NEURÈENÝ', 'NEURÈENÝ', 'NEURÈENÝ', ('NEURÈENÝ'), ('NEURÈENÝ'), ('NEURÈENÝ') ) ;
#29 = APPROVAL_PERSON_ORGANIZATION ( #236, #72, #206 ) ;
#30 = ORIENTED_EDGE ( 'NONE', *, *, #179, .F. ) ;
#31 = AXIS2_PLACEMENT_3D ( 'NONE', #64, #162, #186 ) ;
#32 = ORIENTED_EDGE ( 'NONE', *, *, #157, .F. ) ;
#33 = LOCAL_TIME ( 11, 56, 34.00000000000000000, #253 ) ;
#34 = VERTEX_POINT ( 'NONE', #299 ) ;
#35 = EDGE_LOOP ( 'NONE', ( #106, #248, #77, #57 ) ) ;
#36 = VERTEX_POINT ( 'NONE', #212 ) ;
#37 = LOCAL_TIME ( 11, 56, 34.00000000000000000, #258 ) ;
#38 = DIRECTION ( 'NONE',  ( 1.000000000000000000, 0.000000000000000000, 0.000000000000000000 ) ) ;
#39 = LINE ( 'NONE', #301, #283 ) ;
#40 = DIRECTION ( 'NONE',  ( 0.000000000000000000, 0.000000000000000000, 1.000000000000000000 ) ) ;
#41 = PERSON_AND_ORGANIZATION ( #28, #264 ) ;
#42 = FACE_OUTER_BOUND ( 'NONE', #199, .T. ) ;
#43 = APPROVAL_PERSON_ORGANIZATION ( #4, #105, #204 ) ;
#44 = APPROVAL_DATE_TIME ( #208, #72 ) ;
#45 = DIRECTION ( 'NONE',  ( 0.000000000000000000, 0.000000000000000000, 1.000000000000000000 ) ) ;
#46 = CC_DESIGN_PERSON_AND_ORGANIZATION_ASSIGNMENT ( #143, #298, ( #286 ) ) ;
#47 = DIRECTION ( 'NONE',  ( -1.000000000000000000, 0.000000000000000000, 0.000000000000000000 ) ) ;
#48 = PERSON_AND_ORGANIZATION_ROLE ( 'creator' ) ;
#49 = TOROIDAL_SURFACE ( 'NONE', #222, 3.299999999999999822, 0.2000000000000000111 ) ;
#50 = DIRECTION ( 'NONE',  ( 1.000000000000000000, 0.000000000000000000, 0.000000000000000000 ) ) ;
#51 = DIRECTION ( 'NONE',  ( 1.000000000000000000, 0.000000000000000000, 0.000000000000000000 ) ) ;
#52 = AXIS2_PLACEMENT_3D ( 'NONE', #178, #45, #59 ) ;
#53 = ORIENTED_EDGE ( 'NONE', *, *, #196, .F. ) ;
#54 = ORIENTED_EDGE ( 'NONE', *, *, #139, .F. ) ;
#55 = APPROVAL_STATUS ( 'not_yet_approved' ) ;
#56 = AXIS2_PLACEMENT_3D ( 'NONE', #12, #62, #130 ) ;
#57 = ORIENTED_EDGE ( 'NONE', *, *, #268, .F. ) ;
#58 = VERTEX_POINT ( 'NONE', #252 ) ;
#59 = DIRECTION ( 'NONE',  ( 1.000000000000000000, 0.000000000000000000, -0.000000000000000000 ) ) ;
#60 = APPLICATION_CONTEXT ( 'configuration controlled 3d designs of mechanical parts and assemblies' ) ;
#61 = CARTESIAN_POINT ( 'NONE',  ( 0.000000000000000000, 0.000000000000000000, 5.000000000000000000 ) ) ;
#62 = DIRECTION ( 'NONE',  ( 0.000000000000000000, 0.000000000000000000, 1.000000000000000000 ) ) ;
#63 = ADVANCED_FACE ( 'NONE', ( #232 ), #133, .T. ) ;
#64 = CARTESIAN_POINT ( 'NONE',  ( 0.000000000000000000, 0.000000000000000000, 5.000000000000000000 ) ) ;
#65 = AXIS2_PLACEMENT_3D ( 'NONE', #265, #140, #50 ) ;
#66 = DIRECTION ( 'NONE',  ( 0.000000000000000000, 0.000000000000000000, 1.000000000000000000 ) ) ;
#67 = CARTESIAN_POINT ( 'NONE',  ( 3.100000000000000089, 3.796405077356794918E-16, 5.200000000000009948 ) ) ;
#68 = FACE_OUTER_BOUND ( 'NONE', #147, .T. ) ;
#69 = ADVANCED_FACE ( 'NONE', ( #111 ), #91, .F. ) ;
#70 = CYLINDRICAL_SURFACE ( 'NONE', #169, 3.100000000000000089 ) ;
#71 = AXIS2_PLACEMENT_3D ( 'NONE', #24, #192, #116 ) ;
#72 = APPROVAL ( #213, 'NEURÈENÝ' ) ;
#73 = ADVANCED_FACE ( 'NONE', ( #131 ), #184, .T. ) ;
#74 = AXIS2_PLACEMENT_3D ( 'NONE', #293, #209, #255 ) ;
#75 = CC_DESIGN_DATE_AND_TIME_ASSIGNMENT ( #114, #210, ( #285 ) ) ;
#76 = SHAPE_DEFINITION_REPRESENTATION ( #27, #123 ) ;
#77 = ORIENTED_EDGE ( 'NONE', *, *, #103, .T. ) ;
#78 = ORIENTED_EDGE ( 'NONE', *, *, #216, .F. ) ;
#79 = EDGE_LOOP ( 'NONE', ( #54, #53 ) ) ;
#80 = AXIS2_PLACEMENT_3D ( 'NONE', #303, #26, #120 ) ;
#81 = ORIENTED_EDGE ( 'NONE', *, *, #6, .F. ) ;
#82 = VERTEX_POINT ( 'NONE', #138 ) ;
#83 = ADVANCED_FACE ( 'NONE', ( #42 ), #49, .F. ) ;
#84 = DIRECTION ( 'NONE',  ( 0.000000000000000000, 0.000000000000000000, 1.000000000000000000 ) ) ;
#85 = AXIS2_PLACEMENT_3D ( 'NONE', #115, #84, #156 ) ;
#86 = VECTOR ( 'NONE', #166, 1000.000000000000000 ) ;
#87 = CARTESIAN_POINT ( 'NONE',  ( 0.000000000000000000, 0.000000000000000000, 5.200000000000009948 ) ) ;
#88 = APPLICATION_PROTOCOL_DEFINITION ( 'international standard', 'config_control_design', 1994, #60 ) ;
#89 = DIRECTION ( 'NONE',  ( 1.000000000000000000, 0.000000000000000000, 0.000000000000000000 ) ) ;
#90 = PERSON_AND_ORGANIZATION ( #28, #264 ) ;
#91 = PLANE ( 'NONE',  #241 ) ;
#92 = PERSON_AND_ORGANIZATION_ROLE ( 'creator' ) ;
#93 = DIRECTION ( 'NONE',  ( -0.000000000000000000, -0.000000000000000000, -1.000000000000000000 ) ) ;
#94 = VECTOR ( 'NONE', #108, 1000.000000000000000 ) ;
#95 = PERSON_AND_ORGANIZATION_ROLE ( 'design_owner' ) ;
#96 = LINE ( 'NONE', #282, #86 ) ;
#97 = EDGE_CURVE ( 'NONE', #221, #226, #39, .T. ) ;
#98 = DIRECTION ( 'NONE',  ( -1.000000000000000000, 0.000000000000000000, 0.000000000000000000 ) ) ;
#99 = VECTOR ( 'NONE', #164, 1000.000000000000000 ) ;
#100 = EDGE_LOOP ( 'NONE', ( #30, #32, #124, #291 ) ) ;
#101 = AXIS2_PLACEMENT_3D ( 'NONE', #240, #191, #214 ) ;
#102 = ORIENTED_EDGE ( 'NONE', *, *, #1, .F. ) ;
#103 = EDGE_CURVE ( 'NONE', #287, #36, #126, .T. ) ;
#104 = CALENDAR_DATE ( 2022, 20, 6 ) ;
#105 = APPROVAL ( #55, 'NEURÈENÝ' ) ;
#106 = ORIENTED_EDGE ( 'NONE', *, *, #155, .F. ) ;
#107 = CARTESIAN_POINT ( 'NONE',  ( 0.000000000000000000, 0.000000000000000000, 5.000000000000000000 ) ) ;
#108 = DIRECTION ( 'NONE',  ( -0.000000000000000000, -0.000000000000000000, -1.000000000000000000 ) ) ;
#109 = DATE_TIME_ROLE ( 'creation_date' ) ;
#110 = CIRCLE ( 'NONE', #65, 3.299999999999999822 ) ;
#111 = FACE_OUTER_BOUND ( 'NONE', #79, .T. ) ;
#112 = CALENDAR_DATE ( 2022, 20, 6 ) ;
#113 = DIRECTION ( 'NONE',  ( -0.000000000000000000, -0.000000000000000000, -1.000000000000000000 ) ) ;
#114 = DATE_AND_TIME ( #18, #161 ) ;
#115 = CARTESIAN_POINT ( 'NONE',  ( 0.000000000000000000, 0.000000000000000000, 5.200000000000009948 ) ) ;
#116 = DIRECTION ( 'NONE',  ( 1.000000000000000000, 0.000000000000000000, 0.000000000000000000 ) ) ;
#117 = CARTESIAN_POINT ( 'NONE',  ( 0.000000000000000000, 0.000000000000000000, 5.200000000000009948 ) ) ;
#118 = CALENDAR_DATE ( 2022, 20, 6 ) ;
#119 = MANIFOLD_SOLID_BREP ( 'Zaoblit1', #211 ) ;
#120 = DIRECTION ( 'NONE',  ( -1.000000000000000000, 1.224646799147353207E-16, 0.000000000000000000 ) ) ;
#121 = APPROVAL_DATE_TIME ( #171, #105 ) ;
#122 = EDGE_LOOP ( 'NONE', ( #249, #290, #175, #198 ) ) ;
#123 = ADVANCED_BREP_SHAPE_REPRESENTATION ( 'cb0b', ( #119, #71 ), #174 ) ;
#124 = ORIENTED_EDGE ( 'NONE', *, *, #268, .T. ) ;
#125 = ORIENTED_EDGE ( 'NONE', *, *, #225, .T. ) ;
#126 = CIRCLE ( 'NONE', #13, 3.100000000000000089 ) ;
#127 = ORIENTED_EDGE ( 'NONE', *, *, #141, .T. ) ;
#128 = APPROVAL_PERSON_ORGANIZATION ( #187, #134, #165 ) ;
#129 = AXIS2_PLACEMENT_3D ( 'NONE', #107, #66, #38 ) ;
#130 = DIRECTION ( 'NONE',  ( 1.000000000000000000, 0.000000000000000000, 0.000000000000000000 ) ) ;
#131 = FACE_OUTER_BOUND ( 'NONE', #288, .T. ) ;
#132 = DATE_AND_TIME ( #260, #2 ) ;
#133 = CYLINDRICAL_SURFACE ( 'NONE', #74, 3.100000000000000089 ) ;
#134 = APPROVAL ( #300, 'NEURÈENÝ' ) ;
#135 = PLANE ( 'NONE',  #266 ) ;
#136 = CIRCLE ( 'NONE', #129, 6.000000000000000888 ) ;
#137 = LINE ( 'NONE', #275, #94 ) ;
#138 = CARTESIAN_POINT ( 'NONE',  ( -6.000000000000000888, 0.000000000000000000, 0.000000000000000000 ) ) ;
#139 = EDGE_CURVE ( 'NONE', #82, #226, #194, .T. ) ;
#140 = DIRECTION ( 'NONE',  ( -0.000000000000000000, -0.000000000000000000, -1.000000000000000000 ) ) ;
#141 = EDGE_CURVE ( 'NONE', #223, #221, #136, .T. ) ;
#142 = CIRCLE ( 'NONE', #85, 3.100000000000000089 ) ;
#143 = PERSON_AND_ORGANIZATION ( #28, #264 ) ;
#144 = CC_DESIGN_PERSON_AND_ORGANIZATION_ASSIGNMENT ( #41, #92, ( #195 ) ) ;
#145 = FACE_BOUND ( 'NONE', #224, .T. ) ;
#146 = CARTESIAN_POINT ( 'NONE',  ( 6.000000000000000888, 7.347880794884120722E-16, 5.000000000000000000 ) ) ;
#147 = EDGE_LOOP ( 'NONE', ( #81, #170, #102, #273 ) ) ;
#148 = ORIENTED_EDGE ( 'NONE', *, *, #230, .F. ) ;
#149 = ORIENTED_EDGE ( 'NONE', *, *, #216, .T. ) ;
#150 = ORIENTED_EDGE ( 'NONE', *, *, #97, .F. ) ;
#151 = CIRCLE ( 'NONE', #307, 0.1999999999999996503 ) ;
#152 = ORIENTED_EDGE ( 'NONE', *, *, #103, .F. ) ;
#153 = AXIS2_PLACEMENT_3D ( 'NONE', #215, #168, #261 ) ;
#154 =( LENGTH_UNIT ( ) NAMED_UNIT ( * ) SI_UNIT ( .MILLI., .METRE. ) );
#155 = EDGE_CURVE ( 'NONE', #202, #34, #246, .T. ) ;
#156 = DIRECTION ( 'NONE',  ( 1.000000000000000000, 0.000000000000000000, 0.000000000000000000 ) ) ;
#157 = EDGE_CURVE ( 'NONE', #34, #202, #251, .T. ) ;
#158 = APPLICATION_PROTOCOL_DEFINITION ( 'international standard', 'config_control_design', 1994, #11 ) ;
#159 = CARTESIAN_POINT ( 'NONE',  ( 3.299999999999999822, 0.000000000000000000, 5.200000000000009948 ) ) ;
#160 = COORDINATED_UNIVERSAL_TIME_OFFSET ( 1, 0, .AHEAD. ) ;
#161 = LOCAL_TIME ( 11, 56, 34.00000000000000000, #278 ) ;
#162 = DIRECTION ( 'NONE',  ( -0.000000000000000000, -0.000000000000000000, -1.000000000000000000 ) ) ;
#163 = DIRECTION ( 'NONE',  ( 1.000000000000000000, 0.000000000000000000, -0.000000000000000000 ) ) ;
#164 = DIRECTION ( 'NONE',  ( -0.000000000000000000, -0.000000000000000000, -1.000000000000000000 ) ) ;
#165 = APPROVAL_ROLE ( '' ) ;
#166 = DIRECTION ( 'NONE',  ( -0.000000000000000000, -0.000000000000000000, -1.000000000000000000 ) ) ;
#167 = TOROIDAL_SURFACE ( 'NONE', #243, 3.299999999999999822, 0.2000000000000000111 ) ;
#168 = DIRECTION ( 'NONE',  ( 0.000000000000000000, 0.000000000000000000, 1.000000000000000000 ) ) ;
#169 = AXIS2_PLACEMENT_3D ( 'NONE', #239, #284, #47 ) ;
#170 = ORIENTED_EDGE ( 'NONE', *, *, #230, .T. ) ;
#171 = DATE_AND_TIME ( #104, #33 ) ;
#172 = ORIENTED_EDGE ( 'NONE', *, *, #155, .T. ) ;
#173 = UNCERTAINTY_MEASURE_WITH_UNIT (LENGTH_MEASURE( 1.000000000000000082E-05 ), #154, 'distance_accuracy_value', 'NONE');
#174 =( GEOMETRIC_REPRESENTATION_CONTEXT ( 3 ) GLOBAL_UNCERTAINTY_ASSIGNED_CONTEXT ( ( #173 ) ) GLOBAL_UNIT_ASSIGNED_CONTEXT ( ( #154, #231, #14 ) ) REPRESENTATION_CONTEXT ( 'NONE', 'WORKASPACE' ) );
#175 = ORIENTED_EDGE ( 'NONE', *, *, #196, .T. ) ;
#176 = DESIGN_CONTEXT ( 'detailed design', #11, 'design' ) ;
#177 = AXIS2_PLACEMENT_3D ( 'NONE', #15, #229, #89 ) ;
#178 = CARTESIAN_POINT ( 'NONE',  ( 0.000000000000000000, 0.000000000000000000, 205.0000000000000284 ) ) ;
#179 = EDGE_CURVE ( 'NONE', #202, #287, #137, .T. ) ;
#180 = CC_DESIGN_APPROVAL ( #134, ( #195 ) ) ;
#181 = ADVANCED_FACE ( 'NONE', ( #233 ), #17, .T. ) ;
#182 = CARTESIAN_POINT ( 'NONE',  ( 0.000000000000000000, 0.000000000000000000, 5.000000000000000000 ) ) ;
#183 = PERSON_AND_ORGANIZATION ( #28, #264 ) ;
#184 = PLANE ( 'NONE',  #52 ) ;
#185 = PERSON_AND_ORGANIZATION_ROLE ( 'classification_officer' ) ;
#186 = DIRECTION ( 'NONE',  ( 1.000000000000000000, 0.000000000000000000, 0.000000000000000000 ) ) ;
#187 = PERSON_AND_ORGANIZATION ( #28, #264 ) ;
#188 = CARTESIAN_POINT ( 'NONE',  ( 0.000000000000000000, 0.000000000000000000, 5.200000000000009948 ) ) ;
#189 = CC_DESIGN_PERSON_AND_ORGANIZATION_ASSIGNMENT ( #183, #48, ( #286 ) ) ;
#190 = DATE_AND_TIME ( #118, #302 ) ;
#191 = DIRECTION ( 'NONE',  ( 0.000000000000000000, 0.000000000000000000, 1.000000000000000000 ) ) ;
#192 = DIRECTION ( 'NONE',  ( 0.000000000000000000, 0.000000000000000000, 1.000000000000000000 ) ) ;
#193 = FACE_OUTER_BOUND ( 'NONE', #100, .T. ) ;
#194 = CIRCLE ( 'NONE', #177, 6.000000000000000888 ) ;
#195 = PRODUCT_DEFINITION ( 'NEZNÁMÝ', '', #286, #176 ) ;
#196 = EDGE_CURVE ( 'NONE', #226, #82, #197, .T. ) ;
#197 = CIRCLE ( 'NONE', #153, 6.000000000000000888 ) ;
#198 = ORIENTED_EDGE ( 'NONE', *, *, #242, .F. ) ;
#199 = EDGE_LOOP ( 'NONE', ( #148, #152, #3, #78 ) ) ;
#200 = ADVANCED_FACE ( 'NONE', ( #193 ), #70, .T. ) ;
#201 = AXIS2_PLACEMENT_3D ( 'NONE', #250, #292, #277 ) ;
#202 = VERTEX_POINT ( 'NONE', #25 ) ;
#203 = DIRECTION ( 'NONE',  ( 0.000000000000000000, 0.000000000000000000, -1.000000000000000000 ) ) ;
#204 = APPROVAL_ROLE ( '' ) ;
#205 = CARTESIAN_POINT ( 'NONE',  ( 0.000000000000000000, 0.000000000000000000, 0.000000000000000000 ) ) ;
#206 = APPROVAL_ROLE ( '' ) ;
#207 = DIRECTION ( 'NONE',  ( 0.000000000000000000, 0.000000000000000000, 1.000000000000000000 ) ) ;
#208 = DATE_AND_TIME ( #112, #37 ) ;
#209 = DIRECTION ( 'NONE',  ( -0.000000000000000000, -0.000000000000000000, -1.000000000000000000 ) ) ;
#210 = DATE_TIME_ROLE ( 'classification_date' ) ;
#211 = CLOSED_SHELL ( 'NONE', ( #219, #63, #181, #5, #270, #69, #200, #73, #83 ) ) ;
#212 = CARTESIAN_POINT ( 'NONE',  ( -3.100000000000000089, 0.000000000000000000, 5.200000000000009948 ) ) ;
#213 = APPROVAL_STATUS ( 'not_yet_approved' ) ;
#214 = DIRECTION ( 'NONE',  ( 1.000000000000000000, 0.000000000000000000, 0.000000000000000000 ) ) ;
#215 = CARTESIAN_POINT ( 'NONE',  ( 0.000000000000000000, 0.000000000000000000, 0.000000000000000000 ) ) ;
#216 = EDGE_CURVE ( 'NONE', #7, #58, #110, .T. ) ;
#217 = LINE ( 'NONE', #263, #99 ) ;
#218 = CC_DESIGN_SECURITY_CLASSIFICATION ( #285, ( #286 ) ) ;
#219 = ADVANCED_FACE ( 'NONE', ( #68 ), #167, .F. ) ;
#220 = CC_DESIGN_DATE_AND_TIME_ASSIGNMENT ( #190, #109, ( #195 ) ) ;
#221 = VERTEX_POINT ( 'NONE', #146 ) ;
#222 = AXIS2_PLACEMENT_3D ( 'NONE', #87, #40, #297 ) ;
#223 = VERTEX_POINT ( 'NONE', #22 ) ;
#224 = EDGE_LOOP ( 'NONE', ( #227, #149 ) ) ;
#225 = EDGE_CURVE ( 'NONE', #221, #223, #267, .T. ) ;
#226 = VERTEX_POINT ( 'NONE', #305 ) ;
#227 = ORIENTED_EDGE ( 'NONE', *, *, #1, .T. ) ;
#228 = CARTESIAN_POINT ( 'NONE',  ( -3.299999999999999822, 4.041334437186265510E-16, 5.000000000000005329 ) ) ;
#229 = DIRECTION ( 'NONE',  ( 0.000000000000000000, 0.000000000000000000, 1.000000000000000000 ) ) ;
#230 = EDGE_CURVE ( 'NONE', #36, #7, #238, .T. ) ;
#231 =( NAMED_UNIT ( * ) PLANE_ANGLE_UNIT ( ) SI_UNIT ( $, .RADIAN. ) );
#232 = FACE_OUTER_BOUND ( 'NONE', #35, .T. ) ;
#233 = FACE_OUTER_BOUND ( 'NONE', #122, .T. ) ;
#234 = SECURITY_CLASSIFICATION_LEVEL ( 'unclassified' ) ;
#235 = CYLINDRICAL_SURFACE ( 'NONE', #271, 6.000000000000000888 ) ;
#236 = PERSON_AND_ORGANIZATION ( #28, #264 ) ;
#237 = DIRECTION ( 'NONE',  ( 0.000000000000000000, 0.000000000000000000, 1.000000000000000000 ) ) ;
#238 = CIRCLE ( 'NONE', #80, 0.2000000000000000944 ) ;
#239 = CARTESIAN_POINT ( 'NONE',  ( 0.000000000000000000, 0.000000000000000000, 205.0000000000000284 ) ) ;
#240 = CARTESIAN_POINT ( 'NONE',  ( 0.000000000000000000, 0.000000000000000000, 5.000000000000000000 ) ) ;
#241 = AXIS2_PLACEMENT_3D ( 'NONE', #205, #207, #279 ) ;
#242 = EDGE_CURVE ( 'NONE', #223, #82, #217, .T. ) ;
#243 = AXIS2_PLACEMENT_3D ( 'NONE', #117, #237, #51 ) ;
#244 = EDGE_LOOP ( 'NONE', ( #150, #274, #247, #9 ) ) ;
#245 = CIRCLE ( 'NONE', #31, 3.299999999999999822 ) ;
#246 = CIRCLE ( 'NONE', #201, 3.100000000000000089 ) ;
#247 = ORIENTED_EDGE ( 'NONE', *, *, #242, .T. ) ;
#248 = ORIENTED_EDGE ( 'NONE', *, *, #179, .T. ) ;
#249 = ORIENTED_EDGE ( 'NONE', *, *, #225, .F. ) ;
#250 = CARTESIAN_POINT ( 'NONE',  ( 0.000000000000000000, 0.000000000000000000, 205.0000000000000284 ) ) ;
#251 = CIRCLE ( 'NONE', #56, 3.100000000000000089 ) ;
#252 = CARTESIAN_POINT ( 'NONE',  ( 3.299999999999999822, 0.000000000000000000, 5.000000000000005329 ) ) ;
#253 = COORDINATED_UNIVERSAL_TIME_OFFSET ( 1, 0, .AHEAD. ) ;
#254 = MECHANICAL_CONTEXT ( 'NONE', #60, 'mechanical' ) ;
#255 = DIRECTION ( 'NONE',  ( -1.000000000000000000, 0.000000000000000000, 0.000000000000000000 ) ) ;
#256 = COORDINATED_UNIVERSAL_TIME_OFFSET ( 1, 0, .AHEAD. ) ;
#257 = DIRECTION ( 'NONE',  ( -0.000000000000000000, -0.000000000000000000, -1.000000000000000000 ) ) ;
#258 = COORDINATED_UNIVERSAL_TIME_OFFSET ( 1, 0, .AHEAD. ) ;
#259 = DIRECTION ( 'NONE',  ( -1.000000000000000000, 0.000000000000000000, 0.000000000000000000 ) ) ;
#260 = CALENDAR_DATE ( 2022, 20, 6 ) ;
#261 = DIRECTION ( 'NONE',  ( 1.000000000000000000, 0.000000000000000000, 0.000000000000000000 ) ) ;
#262 = APPROVAL_DATE_TIME ( #132, #134 ) ;
#263 = CARTESIAN_POINT ( 'NONE',  ( -6.000000000000000888, 0.000000000000000000, 5.000000000000000000 ) ) ;
#264 = ORGANIZATION ( 'NEURÈENÝ', 'NEURÈENÝ', '' ) ;
#265 = CARTESIAN_POINT ( 'NONE',  ( 0.000000000000000000, 0.000000000000000000, 5.000000000000000000 ) ) ;
#266 = AXIS2_PLACEMENT_3D ( 'NONE', #296, #280, #163 ) ;
#267 = CIRCLE ( 'NONE', #101, 6.000000000000000888 ) ;
#268 = EDGE_CURVE ( 'NONE', #34, #36, #96, .T. ) ;
#269 = EDGE_LOOP ( 'NONE', ( #127, #125 ) ) ;
#270 = ADVANCED_FACE ( 'NONE', ( #145, #304 ), #135, .T. ) ;
#271 = AXIS2_PLACEMENT_3D ( 'NONE', #182, #257, #259 ) ;
#272 = CC_DESIGN_APPROVAL ( #105, ( #285 ) ) ;
#273 = ORIENTED_EDGE ( 'NONE', *, *, #19, .F. ) ;
#274 = ORIENTED_EDGE ( 'NONE', *, *, #141, .F. ) ;
#275 = CARTESIAN_POINT ( 'NONE',  ( 3.100000000000000089, 3.796405077356794918E-16, 205.0000000000000284 ) ) ;
#276 = DIRECTION ( 'NONE',  ( 1.000000000000000000, 0.000000000000000000, 0.000000000000000000 ) ) ;
#277 = DIRECTION ( 'NONE',  ( 1.000000000000000000, 0.000000000000000000, 0.000000000000000000 ) ) ;
#278 = COORDINATED_UNIVERSAL_TIME_OFFSET ( 1, 0, .AHEAD. ) ;
#279 = DIRECTION ( 'NONE',  ( 1.000000000000000000, 0.000000000000000000, -0.000000000000000000 ) ) ;
#280 = DIRECTION ( 'NONE',  ( 0.000000000000000000, 0.000000000000000000, 1.000000000000000000 ) ) ;
#281 = DIRECTION ( 'NONE',  ( 0.000000000000000000, 0.000000000000000000, 1.000000000000000000 ) ) ;
#282 = CARTESIAN_POINT ( 'NONE',  ( -3.100000000000000089, 0.000000000000000000, 205.0000000000000284 ) ) ;
#283 = VECTOR ( 'NONE', #93, 1000.000000000000000 ) ;
#284 = DIRECTION ( 'NONE',  ( -0.000000000000000000, -0.000000000000000000, -1.000000000000000000 ) ) ;
#285 = SECURITY_CLASSIFICATION ( '', '', #234 ) ;
#286 = PRODUCT_DEFINITION_FORMATION_WITH_SPECIFIED_SOURCE ( 'LIBOVOLNÝ', '', #23, .NOT_KNOWN. ) ;
#287 = VERTEX_POINT ( 'NONE', #67 ) ;
#288 = EDGE_LOOP ( 'NONE', ( #289, #172 ) ) ;
#289 = ORIENTED_EDGE ( 'NONE', *, *, #157, .T. ) ;
#290 = ORIENTED_EDGE ( 'NONE', *, *, #97, .T. ) ;
#291 = ORIENTED_EDGE ( 'NONE', *, *, #6, .T. ) ;
#292 = DIRECTION ( 'NONE',  ( 0.000000000000000000, 0.000000000000000000, 1.000000000000000000 ) ) ;
#293 = CARTESIAN_POINT ( 'NONE',  ( 0.000000000000000000, 0.000000000000000000, 205.0000000000000284 ) ) ;
#294 = AXIS2_PLACEMENT_3D ( 'NONE', #61, #113, #98 ) ;
#295 = CC_DESIGN_PERSON_AND_ORGANIZATION_ASSIGNMENT ( #16, #95, ( #23 ) ) ;
#296 = CARTESIAN_POINT ( 'NONE',  ( 0.000000000000000000, 0.000000000000000000, 5.000000000000000000 ) ) ;
#297 = DIRECTION ( 'NONE',  ( 1.000000000000000000, 0.000000000000000000, 0.000000000000000000 ) ) ;
#298 = PERSON_AND_ORGANIZATION_ROLE ( 'design_supplier' ) ;
#299 = CARTESIAN_POINT ( 'NONE',  ( -3.100000000000000089, 0.000000000000000000, 205.0000000000000284 ) ) ;
#300 = APPROVAL_STATUS ( 'not_yet_approved' ) ;
#301 = CARTESIAN_POINT ( 'NONE',  ( 6.000000000000000888, 7.347880794884120722E-16, 5.000000000000000000 ) ) ;
#302 = LOCAL_TIME ( 11, 56, 34.00000000000000000, #160 ) ;
#303 = CARTESIAN_POINT ( 'NONE',  ( -3.299999999999999822, 4.041334437186265510E-16, 5.200000000000009948 ) ) ;
#304 = FACE_OUTER_BOUND ( 'NONE', #269, .T. ) ;
#305 = CARTESIAN_POINT ( 'NONE',  ( 6.000000000000000888, 7.347880794884120722E-16, 0.000000000000000000 ) ) ;
#306 = CC_DESIGN_APPROVAL ( #72, ( #286 ) ) ;
#307 = AXIS2_PLACEMENT_3D ( 'NONE', #159, #10, #203 ) ;
ENDSEC;
END-ISO-10303-21;
