ISO-10303-21;
HEADER;
FILE_DESCRIPTION (( 'STEP AP203' ),
    '1' );
FILE_NAME ('3654.STEP',
    '2022-06-20T10:10:39',
    ( '' ),
    ( '' ),
    'SwSTEP 2.0',
    'SolidWorks 2019',
    '' );
FILE_SCHEMA (( 'CONFIG_CONTROL_DESIGN' ));
ENDSEC;

DATA;
#1 = EDGE_LOOP ( 'NONE', ( #180, #62 ) ) ;
#2 = ORGANIZATION ( 'NEURÈENÝ', 'NEURÈENÝ', '' ) ;
#3 = DIRECTION ( 'NONE',  ( -0.000000000000000000, -0.000000000000000000, -1.000000000000000000 ) ) ;
#4 = CARTESIAN_POINT ( 'NONE',  ( -1.750000000000000000, 0.000000000000000000, 633.0000000000000000 ) ) ;
#5 = CYLINDRICAL_SURFACE ( 'NONE', #91, 1.750000000000000000 ) ;
#6 = FACE_OUTER_BOUND ( 'NONE', #39, .T. ) ;
#7 = DIRECTION ( 'NONE',  ( 0.000000000000000000, 0.000000000000000000, 1.000000000000000000 ) ) ;
#8 = EDGE_LOOP ( 'NONE', ( #274, #194, #251, #88 ) ) ;
#9 = DIRECTION ( 'NONE',  ( -0.000000000000000000, -0.000000000000000000, -1.000000000000000000 ) ) ;
#10 = VERTEX_POINT ( 'NONE', #169 ) ;
#11 = DIRECTION ( 'NONE',  ( 1.000000000000000000, 0.000000000000000000, 0.000000000000000000 ) ) ;
#12 = ORIENTED_EDGE ( 'NONE', *, *, #151, .T. ) ;
#13 = CARTESIAN_POINT ( 'NONE',  ( -1.950000000000000178, 2.388061258337339136E-16, 2.999999999999990674 ) ) ;
#14 = VERTEX_POINT ( 'NONE', #115 ) ;
#15 = ADVANCED_FACE ( 'NONE', ( #237 ), #49, .F. ) ;
#16 = MANIFOLD_SOLID_BREP ( 'Zaoblit1', #130 ) ;
#17 = DIRECTION ( 'NONE',  ( 0.000000000000000000, 0.000000000000000000, 1.000000000000000000 ) ) ;
#18 = CALENDAR_DATE ( 2022, 20, 6 ) ;
#19 = AXIS2_PLACEMENT_3D ( 'NONE', #271, #63, #42 ) ;
#20 = COORDINATED_UNIVERSAL_TIME_OFFSET ( 1, 0, .AHEAD. ) ;
#21 = CARTESIAN_POINT ( 'NONE',  ( 0.000000000000000000, 0.000000000000000000, 3.000000000000000000 ) ) ;
#22 = CALENDAR_DATE ( 2022, 20, 6 ) ;
#23 = DIRECTION ( 'NONE',  ( -1.000000000000000000, 0.000000000000000000, 0.000000000000000000 ) ) ;
#24 = PERSON_AND_ORGANIZATION ( #58, #2 ) ;
#25 = AXIS2_PLACEMENT_3D ( 'NONE', #127, #295, #83 ) ;
#26 = DIRECTION ( 'NONE',  ( 1.000000000000000000, 0.000000000000000000, 0.000000000000000000 ) ) ;
#27 = AXIS2_PLACEMENT_3D ( 'NONE', #56, #9, #197 ) ;
#28 = CYLINDRICAL_SURFACE ( 'NONE', #216, 3.500000000000000444 ) ;
#29 = CIRCLE ( 'NONE', #241, 1.750000000000000000 ) ;
#30 = LINE ( 'NONE', #126, #239 ) ;
#31 = APPLICATION_PROTOCOL_DEFINITION ( 'international standard', 'config_control_design', 1994, #116 ) ;
#32 = EDGE_CURVE ( 'NONE', #207, #227, #245, .T. ) ;
#33 = DIRECTION ( 'NONE',  ( 1.000000000000000000, 0.000000000000000000, 0.000000000000000000 ) ) ;
#34 = AXIS2_PLACEMENT_3D ( 'NONE', #195, #69, #210 ) ;
#35 = VERTEX_POINT ( 'NONE', #192 ) ;
#36 = DIRECTION ( 'NONE',  ( 0.000000000000000000, -1.000000000000000000, 0.000000000000000000 ) ) ;
#37 = ORIENTED_EDGE ( 'NONE', *, *, #193, .F. ) ;
#38 = DIRECTION ( 'NONE',  ( 1.000000000000000000, 0.000000000000000000, 0.000000000000000000 ) ) ;
#39 = EDGE_LOOP ( 'NONE', ( #64, #181, #81, #183 ) ) ;
#40 = EDGE_CURVE ( 'NONE', #227, #207, #92, .T. ) ;
#41 = LOCAL_TIME ( 12, 10, 39.00000000000000000, #307 ) ;
#42 = DIRECTION ( 'NONE',  ( 1.000000000000000000, 0.000000000000000000, -0.000000000000000000 ) ) ;
#43 = EDGE_LOOP ( 'NONE', ( #137, #156 ) ) ;
#44 = LOCAL_TIME ( 12, 10, 39.00000000000000000, #20 ) ;
#45 = APPLICATION_PROTOCOL_DEFINITION ( 'international standard', 'config_control_design', 1994, #82 ) ;
#46 = ADVANCED_FACE ( 'NONE', ( #289 ), #47, .T. ) ;
#47 = PLANE ( 'NONE',  #110 ) ;
#48 = CALENDAR_DATE ( 2022, 20, 6 ) ;
#49 = TOROIDAL_SURFACE ( 'NONE', #148, 1.950000000000000178, 0.2000000000000000111 ) ;
#50 = DIRECTION ( 'NONE',  ( -0.000000000000000000, -0.000000000000000000, -1.000000000000000000 ) ) ;
#51 = DIRECTION ( 'NONE',  ( 1.000000000000000000, 0.000000000000000000, -0.000000000000000000 ) ) ;
#52 = AXIS2_PLACEMENT_3D ( 'NONE', #273, #173, #244 ) ;
#53 = CARTESIAN_POINT ( 'NONE',  ( 0.000000000000000000, 0.000000000000000000, 3.000000000000000000 ) ) ;
#54 = DIRECTION ( 'NONE',  ( -1.000000000000000000, 0.000000000000000000, 0.000000000000000000 ) ) ;
#55 = DIRECTION ( 'NONE',  ( -0.000000000000000000, -0.000000000000000000, -1.000000000000000000 ) ) ;
#56 = CARTESIAN_POINT ( 'NONE',  ( 0.000000000000000000, 0.000000000000000000, 633.0000000000000000 ) ) ;
#57 =( GEOMETRIC_REPRESENTATION_CONTEXT ( 3 ) GLOBAL_UNCERTAINTY_ASSIGNED_CONTEXT ( ( #213 ) ) GLOBAL_UNIT_ASSIGNED_CONTEXT ( ( #293, #76, #157 ) ) REPRESENTATION_CONTEXT ( 'NONE', 'WORKASPACE' ) );
#58 = PERSON ( 'NEURÈENÝ', 'NEURÈENÝ', 'NEURÈENÝ', ('NEURÈENÝ'), ('NEURÈENÝ'), ('NEURÈENÝ') ) ;
#59 = VERTEX_POINT ( 'NONE', #146 ) ;
#60 = CC_DESIGN_APPROVAL ( #306, ( #121 ) ) ;
#61 = LINE ( 'NONE', #229, #97 ) ;
#62 = ORIENTED_EDGE ( 'NONE', *, *, #198, .F. ) ;
#63 = DIRECTION ( 'NONE',  ( 0.000000000000000000, 0.000000000000000000, 1.000000000000000000 ) ) ;
#64 = ORIENTED_EDGE ( 'NONE', *, *, #282, .F. ) ;
#65 = CIRCLE ( 'NONE', #52, 3.500000000000000444 ) ;
#66 = PERSON_AND_ORGANIZATION ( #58, #2 ) ;
#67 = APPROVAL_ROLE ( '' ) ;
#68 = PERSON_AND_ORGANIZATION ( #58, #2 ) ;
#69 = DIRECTION ( 'NONE',  ( 1.224646799147353207E-16, 1.000000000000000000, -0.000000000000000000 ) ) ;
#70 = CARTESIAN_POINT ( 'NONE',  ( 0.000000000000000000, 0.000000000000000000, 3.199999999999980638 ) ) ;
#71 = DIRECTION ( 'NONE',  ( 1.000000000000000000, 0.000000000000000000, 0.000000000000000000 ) ) ;
#72 = ORIENTED_EDGE ( 'NONE', *, *, #196, .F. ) ;
#73 = DIRECTION ( 'NONE',  ( 0.000000000000000000, 0.000000000000000000, 1.000000000000000000 ) ) ;
#74 = CIRCLE ( 'NONE', #269, 3.500000000000000444 ) ;
#75 = DIRECTION ( 'NONE',  ( -0.000000000000000000, -0.000000000000000000, -1.000000000000000000 ) ) ;
#76 =( NAMED_UNIT ( * ) PLANE_ANGLE_UNIT ( ) SI_UNIT ( $, .RADIAN. ) );
#77 = CC_DESIGN_PERSON_AND_ORGANIZATION_ASSIGNMENT ( #94, #211, ( #121 ) ) ;
#78 = CIRCLE ( 'NONE', #123, 1.750000000000000000 ) ;
#79 = AXIS2_PLACEMENT_3D ( 'NONE', #305, #119, #125 ) ;
#80 = CARTESIAN_POINT ( 'NONE',  ( 1.950000000000000178, 0.000000000000000000, 2.999999999999990674 ) ) ;
#81 = ORIENTED_EDGE ( 'NONE', *, *, #117, .T. ) ;
#82 = APPLICATION_CONTEXT ( 'configuration controlled 3d designs of mechanical parts and assemblies' ) ;
#83 = DIRECTION ( 'NONE',  ( 1.000000000000000000, 0.000000000000000000, 0.000000000000000000 ) ) ;
#84 = EDGE_LOOP ( 'NONE', ( #72, #204, #279, #112 ) ) ;
#85 = ADVANCED_FACE ( 'NONE', ( #145 ), #28, .T. ) ;
#86 = AXIS2_PLACEMENT_3D ( 'NONE', #53, #50, #168 ) ;
#87 = CARTESIAN_POINT ( 'NONE',  ( 0.000000000000000000, 0.000000000000000000, 633.0000000000000000 ) ) ;
#88 = ORIENTED_EDGE ( 'NONE', *, *, #151, .F. ) ;
#89 = VERTEX_POINT ( 'NONE', #98 ) ;
#90 = AXIS2_PLACEMENT_3D ( 'NONE', #220, #278, #11 ) ;
#91 = AXIS2_PLACEMENT_3D ( 'NONE', #270, #189, #54 ) ;
#92 = CIRCLE ( 'NONE', #176, 1.950000000000000178 ) ;
#93 = COORDINATED_UNIVERSAL_TIME_OFFSET ( 1, 0, .AHEAD. ) ;
#94 = PERSON_AND_ORGANIZATION ( #58, #2 ) ;
#95 = CARTESIAN_POINT ( 'NONE',  ( -3.500000000000000444, 0.000000000000000000, 3.000000000000000000 ) ) ;
#96 = DATE_AND_TIME ( #18, #296 ) ;
#97 = VECTOR ( 'NONE', #55, 1000.000000000000000 ) ;
#98 = CARTESIAN_POINT ( 'NONE',  ( -1.750000000000000000, 0.000000000000000000, 633.0000000000000000 ) ) ;
#99 = CYLINDRICAL_SURFACE ( 'NONE', #154, 3.500000000000000444 ) ;
#100 = EDGE_CURVE ( 'NONE', #260, #301, #138, .T. ) ;
#101 = DIRECTION ( 'NONE',  ( -0.000000000000000000, -0.000000000000000000, -1.000000000000000000 ) ) ;
#102 = CARTESIAN_POINT ( 'NONE',  ( 1.950000000000000178, 0.000000000000000000, 3.199999999999980638 ) ) ;
#103 = EDGE_CURVE ( 'NONE', #89, #14, #217, .T. ) ;
#104 = VECTOR ( 'NONE', #242, 1000.000000000000000 ) ;
#105 = ORIENTED_EDGE ( 'NONE', *, *, #292, .F. ) ;
#106 = DIRECTION ( 'NONE',  ( 0.000000000000000000, 0.000000000000000000, 1.000000000000000000 ) ) ;
#107 = EDGE_LOOP ( 'NONE', ( #37, #248, #277, #158 ) ) ;
#108 = CC_DESIGN_DATE_AND_TIME_ASSIGNMENT ( #163, #114, ( #121 ) ) ;
#109 = EDGE_LOOP ( 'NONE', ( #225, #203 ) ) ;
#110 = AXIS2_PLACEMENT_3D ( 'NONE', #267, #266, #51 ) ;
#111 = PLANE ( 'NONE',  #19 ) ;
#112 = ORIENTED_EDGE ( 'NONE', *, *, #272, .F. ) ;
#113 = CIRCLE ( 'NONE', #25, 3.500000000000000444 ) ;
#114 = DATE_TIME_ROLE ( 'classification_date' ) ;
#115 = CARTESIAN_POINT ( 'NONE',  ( -1.750000000000000000, 0.000000000000000000, 3.199999999999980638 ) ) ;
#116 = APPLICATION_CONTEXT ( 'configuration controlled 3d designs of mechanical parts and assemblies' ) ;
#117 = EDGE_CURVE ( 'NONE', #135, #14, #29, .T. ) ;
#118 = DATE_TIME_ROLE ( 'creation_date' ) ;
#119 = DIRECTION ( 'NONE',  ( 0.000000000000000000, 0.000000000000000000, 1.000000000000000000 ) ) ;
#120 = PRODUCT_RELATED_PRODUCT_CATEGORY ( 'detail', '', ( #247 ) ) ;
#121 = SECURITY_CLASSIFICATION ( '', '', #208 ) ;
#122 = ORIENTED_EDGE ( 'NONE', *, *, #265, .F. ) ;
#123 = AXIS2_PLACEMENT_3D ( 'NONE', #70, #166, #236 ) ;
#124 = VECTOR ( 'NONE', #3, 1000.000000000000000 ) ;
#125 = DIRECTION ( 'NONE',  ( 1.000000000000000000, 0.000000000000000000, 0.000000000000000000 ) ) ;
#126 = CARTESIAN_POINT ( 'NONE',  ( 3.500000000000000444, 4.286263797015737088E-16, 3.000000000000000000 ) ) ;
#127 = CARTESIAN_POINT ( 'NONE',  ( 0.000000000000000000, 0.000000000000000000, 0.000000000000000000 ) ) ;
#128 = CARTESIAN_POINT ( 'NONE',  ( 3.500000000000000444, 4.286263797015737088E-16, 3.000000000000000000 ) ) ;
#129 = AXIS2_PLACEMENT_3D ( 'NONE', #136, #106, #177 ) ;
#130 = CLOSED_SHELL ( 'NONE', ( #15, #287, #85, #142, #268, #263, #150, #46, #246 ) ) ;
#131 = DIRECTION ( 'NONE',  ( 0.000000000000000000, 0.000000000000000000, -1.000000000000000000 ) ) ;
#132 = CC_DESIGN_PERSON_AND_ORGANIZATION_ASSIGNMENT ( #231, #233, ( #238 ) ) ;
#133 = EDGE_LOOP ( 'NONE', ( #255, #299 ) ) ;
#134 = DIRECTION ( 'NONE',  ( 0.000000000000000000, 0.000000000000000000, 1.000000000000000000 ) ) ;
#135 = VERTEX_POINT ( 'NONE', #164 ) ;
#136 = CARTESIAN_POINT ( 'NONE',  ( 0.000000000000000000, 0.000000000000000000, 0.000000000000000000 ) ) ;
#137 = ORIENTED_EDGE ( 'NONE', *, *, #265, .T. ) ;
#138 = CIRCLE ( 'NONE', #79, 3.500000000000000444 ) ;
#139 = PERSON_AND_ORGANIZATION_ROLE ( 'creator' ) ;
#140 = APPROVAL_ROLE ( '' ) ;
#141 = FACE_OUTER_BOUND ( 'NONE', #153, .T. ) ;
#142 = ADVANCED_FACE ( 'NONE', ( #141 ), #99, .T. ) ;
#143 = DIRECTION ( 'NONE',  ( 0.000000000000000000, 0.000000000000000000, 1.000000000000000000 ) ) ;
#144 = CALENDAR_DATE ( 2022, 20, 6 ) ;
#145 = FACE_OUTER_BOUND ( 'NONE', #8, .T. ) ;
#146 = CARTESIAN_POINT ( 'NONE',  ( 1.750000000000000000, 2.143131898507868297E-16, 633.0000000000000000 ) ) ;
#147 = CIRCLE ( 'NONE', #190, 0.2000000000000000944 ) ;
#148 = AXIS2_PLACEMENT_3D ( 'NONE', #240, #73, #26 ) ;
#149 = LINE ( 'NONE', #95, #104 ) ;
#150 = ADVANCED_FACE ( 'NONE', ( #171 ), #5, .T. ) ;
#151 = EDGE_CURVE ( 'NONE', #301, #35, #149, .T. ) ;
#152 = FACE_BOUND ( 'NONE', #109, .T. ) ;
#153 = EDGE_LOOP ( 'NONE', ( #202, #122, #12, #218 ) ) ;
#154 = AXIS2_PLACEMENT_3D ( 'NONE', #21, #75, #191 ) ;
#155 = CARTESIAN_POINT ( 'NONE',  ( -3.500000000000000444, 0.000000000000000000, 3.000000000000000000 ) ) ;
#156 = ORIENTED_EDGE ( 'NONE', *, *, #100, .T. ) ;
#157 =( NAMED_UNIT ( * ) SI_UNIT ( $, .STERADIAN. ) SOLID_ANGLE_UNIT ( ) );
#158 = ORIENTED_EDGE ( 'NONE', *, *, #40, .F. ) ;
#159 = AXIS2_PLACEMENT_3D ( 'NONE', #87, #7, #33 ) ;
#160 = AXIS2_PLACEMENT_3D ( 'NONE', #187, #17, #71 ) ;
#161 = DATE_AND_TIME ( #144, #222 ) ;
#162 = PERSON_AND_ORGANIZATION_ROLE ( 'design_owner' ) ;
#163 = DATE_AND_TIME ( #302, #41 ) ;
#164 = CARTESIAN_POINT ( 'NONE',  ( 1.750000000000000000, 2.143131898507868297E-16, 3.199999999999980638 ) ) ;
#165 = APPROVAL_ROLE ( '' ) ;
#166 = DIRECTION ( 'NONE',  ( 0.000000000000000000, 0.000000000000000000, 1.000000000000000000 ) ) ;
#167 = APPROVAL_DATE_TIME ( #257, #298 ) ;
#168 = DIRECTION ( 'NONE',  ( 1.000000000000000000, 0.000000000000000000, 0.000000000000000000 ) ) ;
#169 = CARTESIAN_POINT ( 'NONE',  ( 3.500000000000000444, 4.286263797015737088E-16, 0.000000000000000000 ) ) ;
#170 = EDGE_CURVE ( 'NONE', #260, #10, #30, .T. ) ;
#171 = FACE_OUTER_BOUND ( 'NONE', #300, .T. ) ;
#172 = FACE_OUTER_BOUND ( 'NONE', #1, .T. ) ;
#173 = DIRECTION ( 'NONE',  ( 0.000000000000000000, 0.000000000000000000, 1.000000000000000000 ) ) ;
#174 = APPROVAL_PERSON_ORGANIZATION ( #24, #219, #140 ) ;
#175 = APPROVAL_PERSON_ORGANIZATION ( #66, #298, #165 ) ;
#176 = AXIS2_PLACEMENT_3D ( 'NONE', #262, #234, #290 ) ;
#177 = DIRECTION ( 'NONE',  ( 1.000000000000000000, 0.000000000000000000, -0.000000000000000000 ) ) ;
#178 = ORIENTED_EDGE ( 'NONE', *, *, #196, .T. ) ;
#179 = CARTESIAN_POINT ( 'NONE',  ( 0.000000000000000000, 0.000000000000000000, 3.199999999999980638 ) ) ;
#180 = ORIENTED_EDGE ( 'NONE', *, *, #205, .F. ) ;
#181 = ORIENTED_EDGE ( 'NONE', *, *, #292, .T. ) ;
#182 = COORDINATED_UNIVERSAL_TIME_OFFSET ( 1, 0, .AHEAD. ) ;
#183 = ORIENTED_EDGE ( 'NONE', *, *, #103, .F. ) ;
#184 = CIRCLE ( 'NONE', #90, 1.750000000000000000 ) ;
#185 = PERSON_AND_ORGANIZATION ( #58, #2 ) ;
#186 = CC_DESIGN_SECURITY_CLASSIFICATION ( #121, ( #238 ) ) ;
#187 = CARTESIAN_POINT ( 'NONE',  ( 0.000000000000000000, 0.000000000000000000, 0.000000000000000000 ) ) ;
#188 = CC_DESIGN_DATE_AND_TIME_ASSIGNMENT ( #264, #118, ( #232 ) ) ;
#189 = DIRECTION ( 'NONE',  ( -0.000000000000000000, -0.000000000000000000, -1.000000000000000000 ) ) ;
#190 = AXIS2_PLACEMENT_3D ( 'NONE', #102, #36, #131 ) ;
#191 = DIRECTION ( 'NONE',  ( -1.000000000000000000, 0.000000000000000000, 0.000000000000000000 ) ) ;
#192 = CARTESIAN_POINT ( 'NONE',  ( -3.500000000000000444, 0.000000000000000000, 0.000000000000000000 ) ) ;
#193 = EDGE_CURVE ( 'NONE', #14, #227, #228, .T. ) ;
#194 = ORIENTED_EDGE ( 'NONE', *, *, #170, .T. ) ;
#195 = CARTESIAN_POINT ( 'NONE',  ( -1.950000000000000178, 2.388061258337339136E-16, 3.199999999999980638 ) ) ;
#196 = EDGE_CURVE ( 'NONE', #14, #135, #78, .T. ) ;
#197 = DIRECTION ( 'NONE',  ( -1.000000000000000000, 0.000000000000000000, 0.000000000000000000 ) ) ;
#198 = EDGE_CURVE ( 'NONE', #10, #35, #74, .T. ) ;
#199 = CARTESIAN_POINT ( 'NONE',  ( 0.000000000000000000, 0.000000000000000000, 0.000000000000000000 ) ) ;
#200 = CC_DESIGN_APPROVAL ( #298, ( #232 ) ) ;
#201 = LOCAL_TIME ( 12, 10, 39.00000000000000000, #93 ) ;
#202 = ORIENTED_EDGE ( 'NONE', *, *, #170, .F. ) ;
#203 = ORIENTED_EDGE ( 'NONE', *, *, #40, .T. ) ;
#204 = ORIENTED_EDGE ( 'NONE', *, *, #193, .T. ) ;
#205 = EDGE_CURVE ( 'NONE', #35, #10, #113, .T. ) ;
#206 = APPROVAL_DATE_TIME ( #161, #219 ) ;
#207 = VERTEX_POINT ( 'NONE', #80 ) ;
#208 = SECURITY_CLASSIFICATION_LEVEL ( 'unclassified' ) ;
#209 = SHAPE_DEFINITION_REPRESENTATION ( #294, #223 ) ;
#210 = DIRECTION ( 'NONE',  ( -1.000000000000000000, 1.224646799147354686E-16, 0.000000000000000000 ) ) ;
#211 = PERSON_AND_ORGANIZATION_ROLE ( 'classification_officer' ) ;
#212 = DIRECTION ( 'NONE',  ( 1.000000000000000000, 0.000000000000000000, 0.000000000000000000 ) ) ;
#213 = UNCERTAINTY_MEASURE_WITH_UNIT (LENGTH_MEASURE( 1.000000000000000082E-05 ), #293, 'distance_accuracy_value', 'NONE');
#214 = CC_DESIGN_APPROVAL ( #219, ( #238 ) ) ;
#215 = DIRECTION ( 'NONE',  ( -0.000000000000000000, -0.000000000000000000, -1.000000000000000000 ) ) ;
#216 = AXIS2_PLACEMENT_3D ( 'NONE', #286, #215, #23 ) ;
#217 = LINE ( 'NONE', #4, #124 ) ;
#218 = ORIENTED_EDGE ( 'NONE', *, *, #205, .T. ) ;
#219 = APPROVAL ( #280, 'NEURÈENÝ' ) ;
#220 = CARTESIAN_POINT ( 'NONE',  ( 0.000000000000000000, 0.000000000000000000, 633.0000000000000000 ) ) ;
#221 = FACE_OUTER_BOUND ( 'NONE', #43, .T. ) ;
#222 = LOCAL_TIME ( 12, 10, 39.00000000000000000, #182 ) ;
#223 = ADVANCED_BREP_SHAPE_REPRESENTATION ( '3654', ( #16, #160 ), #57 ) ;
#224 = CYLINDRICAL_SURFACE ( 'NONE', #27, 1.750000000000000000 ) ;
#225 = ORIENTED_EDGE ( 'NONE', *, *, #32, .T. ) ;
#226 = PLANE ( 'NONE',  #129 ) ;
#227 = VERTEX_POINT ( 'NONE', #13 ) ;
#228 = CIRCLE ( 'NONE', #34, 0.1999999999999998723 ) ;
#229 = CARTESIAN_POINT ( 'NONE',  ( 1.750000000000000000, 2.143131898507868297E-16, 633.0000000000000000 ) ) ;
#230 = ORIENTED_EDGE ( 'NONE', *, *, #103, .T. ) ;
#231 = PERSON_AND_ORGANIZATION ( #58, #2 ) ;
#232 = PRODUCT_DEFINITION ( 'NEZNÁMÝ', '', #238, #285 ) ;
#233 = PERSON_AND_ORGANIZATION_ROLE ( 'design_supplier' ) ;
#234 = DIRECTION ( 'NONE',  ( -0.000000000000000000, -0.000000000000000000, -1.000000000000000000 ) ) ;
#235 = PERSON_AND_ORGANIZATION ( #58, #2 ) ;
#236 = DIRECTION ( 'NONE',  ( 1.000000000000000000, 0.000000000000000000, 0.000000000000000000 ) ) ;
#237 = FACE_OUTER_BOUND ( 'NONE', #84, .T. ) ;
#238 = PRODUCT_DEFINITION_FORMATION_WITH_SPECIFIED_SOURCE ( 'LIBOVOLNÝ', '', #247, .NOT_KNOWN. ) ;
#239 = VECTOR ( 'NONE', #101, 1000.000000000000000 ) ;
#240 = CARTESIAN_POINT ( 'NONE',  ( 0.000000000000000000, 0.000000000000000000, 3.199999999999980638 ) ) ;
#241 = AXIS2_PLACEMENT_3D ( 'NONE', #288, #143, #212 ) ;
#242 = DIRECTION ( 'NONE',  ( -0.000000000000000000, -0.000000000000000000, -1.000000000000000000 ) ) ;
#243 = CC_DESIGN_PERSON_AND_ORGANIZATION_ASSIGNMENT ( #235, #303, ( #232 ) ) ;
#244 = DIRECTION ( 'NONE',  ( 1.000000000000000000, 0.000000000000000000, 0.000000000000000000 ) ) ;
#245 = CIRCLE ( 'NONE', #86, 1.950000000000000178 ) ;
#246 = ADVANCED_FACE ( 'NONE', ( #252 ), #291, .F. ) ;
#247 = PRODUCT ( '3654', '3654', '', ( #284 ) ) ;
#248 = ORIENTED_EDGE ( 'NONE', *, *, #117, .F. ) ;
#249 = EDGE_CURVE ( 'NONE', #89, #59, #297, .T. ) ;
#250 = DIRECTION ( 'NONE',  ( 0.000000000000000000, 0.000000000000000000, 1.000000000000000000 ) ) ;
#251 = ORIENTED_EDGE ( 'NONE', *, *, #198, .T. ) ;
#252 = FACE_OUTER_BOUND ( 'NONE', #107, .T. ) ;
#253 = CC_DESIGN_PERSON_AND_ORGANIZATION_ASSIGNMENT ( #68, #139, ( #238 ) ) ;
#254 = ORIENTED_EDGE ( 'NONE', *, *, #249, .F. ) ;
#255 = ORIENTED_EDGE ( 'NONE', *, *, #249, .T. ) ;
#256 = APPROVAL_PERSON_ORGANIZATION ( #283, #306, #67 ) ;
#257 = DATE_AND_TIME ( #48, #44 ) ;
#258 = COORDINATED_UNIVERSAL_TIME_OFFSET ( 1, 0, .AHEAD. ) ;
#259 = APPROVAL_DATE_TIME ( #96, #306 ) ;
#260 = VERTEX_POINT ( 'NONE', #128 ) ;
#261 = APPROVAL_STATUS ( 'not_yet_approved' ) ;
#262 = CARTESIAN_POINT ( 'NONE',  ( 0.000000000000000000, 0.000000000000000000, 3.000000000000000000 ) ) ;
#263 = ADVANCED_FACE ( 'NONE', ( #172 ), #226, .F. ) ;
#264 = DATE_AND_TIME ( #22, #201 ) ;
#265 = EDGE_CURVE ( 'NONE', #301, #260, #65, .T. ) ;
#266 = DIRECTION ( 'NONE',  ( 0.000000000000000000, 0.000000000000000000, 1.000000000000000000 ) ) ;
#267 = CARTESIAN_POINT ( 'NONE',  ( 0.000000000000000000, 0.000000000000000000, 633.0000000000000000 ) ) ;
#268 = ADVANCED_FACE ( 'NONE', ( #152, #221 ), #111, .T. ) ;
#269 = AXIS2_PLACEMENT_3D ( 'NONE', #199, #250, #38 ) ;
#270 = CARTESIAN_POINT ( 'NONE',  ( 0.000000000000000000, 0.000000000000000000, 633.0000000000000000 ) ) ;
#271 = CARTESIAN_POINT ( 'NONE',  ( 0.000000000000000000, 0.000000000000000000, 3.000000000000000000 ) ) ;
#272 = EDGE_CURVE ( 'NONE', #135, #207, #147, .T. ) ;
#273 = CARTESIAN_POINT ( 'NONE',  ( 0.000000000000000000, 0.000000000000000000, 3.000000000000000000 ) ) ;
#274 = ORIENTED_EDGE ( 'NONE', *, *, #100, .F. ) ;
#275 = CC_DESIGN_PERSON_AND_ORGANIZATION_ASSIGNMENT ( #185, #162, ( #247 ) ) ;
#276 = DIRECTION ( 'NONE',  ( 1.000000000000000000, 0.000000000000000000, 0.000000000000000000 ) ) ;
#277 = ORIENTED_EDGE ( 'NONE', *, *, #272, .T. ) ;
#278 = DIRECTION ( 'NONE',  ( 0.000000000000000000, 0.000000000000000000, 1.000000000000000000 ) ) ;
#279 = ORIENTED_EDGE ( 'NONE', *, *, #32, .F. ) ;
#280 = APPROVAL_STATUS ( 'not_yet_approved' ) ;
#281 = AXIS2_PLACEMENT_3D ( 'NONE', #179, #134, #276 ) ;
#282 = EDGE_CURVE ( 'NONE', #59, #89, #184, .T. ) ;
#283 = PERSON_AND_ORGANIZATION ( #58, #2 ) ;
#284 = MECHANICAL_CONTEXT ( 'NONE', #116, 'mechanical' ) ;
#285 = DESIGN_CONTEXT ( 'detailed design', #82, 'design' ) ;
#286 = CARTESIAN_POINT ( 'NONE',  ( 0.000000000000000000, 0.000000000000000000, 3.000000000000000000 ) ) ;
#287 = ADVANCED_FACE ( 'NONE', ( #6 ), #224, .T. ) ;
#288 = CARTESIAN_POINT ( 'NONE',  ( 0.000000000000000000, 0.000000000000000000, 3.199999999999980638 ) ) ;
#289 = FACE_OUTER_BOUND ( 'NONE', #133, .T. ) ;
#290 = DIRECTION ( 'NONE',  ( 1.000000000000000000, 0.000000000000000000, 0.000000000000000000 ) ) ;
#291 = TOROIDAL_SURFACE ( 'NONE', #281, 1.950000000000000178, 0.2000000000000000111 ) ;
#292 = EDGE_CURVE ( 'NONE', #59, #135, #61, .T. ) ;
#293 =( LENGTH_UNIT ( ) NAMED_UNIT ( * ) SI_UNIT ( .MILLI., .METRE. ) );
#294 = PRODUCT_DEFINITION_SHAPE ( 'NONE', 'NONE',  #232 ) ;
#295 = DIRECTION ( 'NONE',  ( 0.000000000000000000, 0.000000000000000000, 1.000000000000000000 ) ) ;
#296 = LOCAL_TIME ( 12, 10, 39.00000000000000000, #258 ) ;
#297 = CIRCLE ( 'NONE', #159, 1.750000000000000000 ) ;
#298 = APPROVAL ( #304, 'NEURÈENÝ' ) ;
#299 = ORIENTED_EDGE ( 'NONE', *, *, #282, .T. ) ;
#300 = EDGE_LOOP ( 'NONE', ( #105, #254, #230, #178 ) ) ;
#301 = VERTEX_POINT ( 'NONE', #155 ) ;
#302 = CALENDAR_DATE ( 2022, 20, 6 ) ;
#303 = PERSON_AND_ORGANIZATION_ROLE ( 'creator' ) ;
#304 = APPROVAL_STATUS ( 'not_yet_approved' ) ;
#305 = CARTESIAN_POINT ( 'NONE',  ( 0.000000000000000000, 0.000000000000000000, 3.000000000000000000 ) ) ;
#306 = APPROVAL ( #261, 'NEURÈENÝ' ) ;
#307 = COORDINATED_UNIVERSAL_TIME_OFFSET ( 1, 0, .AHEAD. ) ;
ENDSEC;
END-ISO-10303-21;
