ISO-10303-21;
HEADER;
FILE_DESCRIPTION (( 'STEP AP203' ),
    '1' );
FILE_NAME ('a9f6.STEP',
    '2022-06-20T10:21:34',
    ( '' ),
    ( '' ),
    'SwSTEP 2.0',
    'SolidWorks 2019',
    '' );
FILE_SCHEMA (( 'CONFIG_CONTROL_DESIGN' ));
ENDSEC;

DATA;
#1 = PLANE ( 'NONE',  #8 ) ;
#2 = CARTESIAN_POINT ( 'NONE',  ( 0.9000000000000000222, 1.102182119232617788E-16, 161.5000000000000000 ) ) ;
#3 = DIRECTION ( 'NONE',  ( 1.000000000000000000, 0.000000000000000000, 0.000000000000000000 ) ) ;
#4 = PRODUCT_DEFINITION_FORMATION_WITH_SPECIFIED_SOURCE ( 'LIBOVOLNÝ', '', #80, .NOT_KNOWN. ) ;
#5 = AXIS2_PLACEMENT_3D ( 'NONE', #297, #188, #87 ) ;
#6 = CARTESIAN_POINT ( 'NONE',  ( 1.100000000000000089, 0.000000000000000000, 1.500000000000003553 ) ) ;
#7 = PERSON_AND_ORGANIZATION_ROLE ( 'classification_officer' ) ;
#8 = AXIS2_PLACEMENT_3D ( 'NONE', #99, #241, #30 ) ;
#9 = DIRECTION ( 'NONE',  ( -0.000000000000000000, -0.000000000000000000, -1.000000000000000000 ) ) ;
#10 = CC_DESIGN_PERSON_AND_ORGANIZATION_ASSIGNMENT ( #166, #258, ( #80 ) ) ;
#11 = DIRECTION ( 'NONE',  ( 1.000000000000000000, 0.000000000000000000, 0.000000000000000000 ) ) ;
#12 = CALENDAR_DATE ( 2022, 20, 6 ) ;
#13 = CARTESIAN_POINT ( 'NONE',  ( 0.000000000000000000, 0.000000000000000000, 161.5000000000000000 ) ) ;
#14 = AXIS2_PLACEMENT_3D ( 'NONE', #272, #100, #288 ) ;
#15 = VECTOR ( 'NONE', #187, 1000.000000000000000 ) ;
#16 = AXIS2_PLACEMENT_3D ( 'NONE', #34, #36, #130 ) ;
#17 = ADVANCED_FACE ( 'NONE', ( #205 ), #28, .T. ) ;
#18 = PERSON_AND_ORGANIZATION_ROLE ( 'creator' ) ;
#19 = VECTOR ( 'NONE', #202, 1000.000000000000000 ) ;
#20 = EDGE_CURVE ( 'NONE', #46, #201, #110, .T. ) ;
#21 = ORIENTED_EDGE ( 'NONE', *, *, #234, .F. ) ;
#22 = APPLICATION_PROTOCOL_DEFINITION ( 'international standard', 'config_control_design', 1994, #129 ) ;
#23 = AXIS2_PLACEMENT_3D ( 'NONE', #56, #175, #264 ) ;
#24 = ORIENTED_EDGE ( 'NONE', *, *, #93, .T. ) ;
#25 = ORIENTED_EDGE ( 'NONE', *, *, #98, .F. ) ;
#26 = AXIS2_PLACEMENT_3D ( 'NONE', #134, #190, #114 ) ;
#27 = DIRECTION ( 'NONE',  ( 0.000000000000000000, 0.000000000000000000, 1.000000000000000000 ) ) ;
#28 = CYLINDRICAL_SURFACE ( 'NONE', #161, 0.9000000000000000222 ) ;
#29 = FACE_OUTER_BOUND ( 'NONE', #117, .T. ) ;
#30 = DIRECTION ( 'NONE',  ( 1.000000000000000000, 0.000000000000000000, -0.000000000000000000 ) ) ;
#31 = DATE_AND_TIME ( #177, #105 ) ;
#32 = DIRECTION ( 'NONE',  ( 0.000000000000000000, 0.000000000000000000, 1.000000000000000000 ) ) ;
#33 = COORDINATED_UNIVERSAL_TIME_OFFSET ( 1, 0, .AHEAD. ) ;
#34 = CARTESIAN_POINT ( 'NONE',  ( 0.000000000000000000, 0.000000000000000000, 161.5000000000000000 ) ) ;
#35 = CARTESIAN_POINT ( 'NONE',  ( -2.000000000000000000, 0.000000000000000000, 1.500000000000000000 ) ) ;
#36 = DIRECTION ( 'NONE',  ( 0.000000000000000000, 0.000000000000000000, 1.000000000000000000 ) ) ;
#37 = EDGE_CURVE ( 'NONE', #45, #192, #273, .T. ) ;
#38 = LOCAL_TIME ( 12, 21, 34.00000000000000000, #303 ) ;
#39 = PLANE ( 'NONE',  #225 ) ;
#40 = PERSON_AND_ORGANIZATION ( #113, #292 ) ;
#41 = PRODUCT_DEFINITION ( 'NEZNÁMÝ', '', #4, #96 ) ;
#42 = ORIENTED_EDGE ( 'NONE', *, *, #245, .T. ) ;
#43 = CC_DESIGN_APPROVAL ( #277, ( #4 ) ) ;
#44 = AXIS2_PLACEMENT_3D ( 'NONE', #278, #276, #160 ) ;
#45 = VERTEX_POINT ( 'NONE', #6 ) ;
#46 = VERTEX_POINT ( 'NONE', #220 ) ;
#47 = EDGE_CURVE ( 'NONE', #173, #143, #283, .T. ) ;
#48 = UNCERTAINTY_MEASURE_WITH_UNIT (LENGTH_MEASURE( 1.000000000000000082E-05 ), #296, 'distance_accuracy_value', 'NONE');
#49 = ORIENTED_EDGE ( 'NONE', *, *, #120, .F. ) ;
#50 = DIRECTION ( 'NONE',  ( 1.000000000000000000, 0.000000000000000000, 0.000000000000000000 ) ) ;
#51 = ADVANCED_FACE ( 'NONE', ( #29 ), #140, .F. ) ;
#52 = DIRECTION ( 'NONE',  ( 1.000000000000000000, 0.000000000000000000, 0.000000000000000000 ) ) ;
#53 = DIRECTION ( 'NONE',  ( 1.000000000000000000, 0.000000000000000000, 0.000000000000000000 ) ) ;
#54 = AXIS2_PLACEMENT_3D ( 'NONE', #86, #111, #181 ) ;
#55 = APPROVAL_DATE_TIME ( #230, #277 ) ;
#56 = CARTESIAN_POINT ( 'NONE',  ( 0.000000000000000000, 0.000000000000000000, 0.000000000000000000 ) ) ;
#57 = APPROVAL_ROLE ( '' ) ;
#58 = DIRECTION ( 'NONE',  ( 0.000000000000000000, 0.000000000000000000, -1.000000000000000000 ) ) ;
#59 = APPROVAL_ROLE ( '' ) ;
#60 = APPROVAL_PERSON_ORGANIZATION ( #40, #156, #139 ) ;
#61 = CARTESIAN_POINT ( 'NONE',  ( 1.100000000000000089, 0.000000000000000000, 1.700000000000007061 ) ) ;
#62 = DIRECTION ( 'NONE',  ( 0.000000000000000000, 0.000000000000000000, 1.000000000000000000 ) ) ;
#63 = VECTOR ( 'NONE', #223, 1000.000000000000000 ) ;
#64 = ORIENTED_EDGE ( 'NONE', *, *, #257, .F. ) ;
#65 = ORIENTED_EDGE ( 'NONE', *, *, #37, .F. ) ;
#66 = MANIFOLD_SOLID_BREP ( 'Zaoblit1', #221 ) ;
#67 = ADVANCED_FACE ( 'NONE', ( #266 ), #132, .F. ) ;
#68 = CIRCLE ( 'NONE', #248, 1.100000000000000089 ) ;
#69 = ORIENTED_EDGE ( 'NONE', *, *, #163, .T. ) ;
#70 = DIRECTION ( 'NONE',  ( 1.000000000000000000, 0.000000000000000000, 0.000000000000000000 ) ) ;
#71 = CIRCLE ( 'NONE', #164, 0.9000000000000000222 ) ;
#72 = DIRECTION ( 'NONE',  ( -0.000000000000000000, -0.000000000000000000, -1.000000000000000000 ) ) ;
#73 = CC_DESIGN_PERSON_AND_ORGANIZATION_ASSIGNMENT ( #235, #18, ( #41 ) ) ;
#74 = CYLINDRICAL_SURFACE ( 'NONE', #5, 0.9000000000000000222 ) ;
#75 = COORDINATED_UNIVERSAL_TIME_OFFSET ( 1, 0, .AHEAD. ) ;
#76 = ORIENTED_EDGE ( 'NONE', *, *, #238, .F. ) ;
#77 = PLANE ( 'NONE',  #306 ) ;
#78 = CARTESIAN_POINT ( 'NONE',  ( -0.9000000000000000222, 0.000000000000000000, 1.700000000000007061 ) ) ;
#79 = PERSON_AND_ORGANIZATION ( #113, #292 ) ;
#80 = PRODUCT ( 'a9f6', 'a9f6', '', ( #282 ) ) ;
#81 = APPLICATION_CONTEXT ( 'configuration controlled 3d designs of mechanical parts and assemblies' ) ;
#82 = CARTESIAN_POINT ( 'NONE',  ( 0.000000000000000000, 0.000000000000000000, 0.000000000000000000 ) ) ;
#83 = DATE_TIME_ROLE ( 'classification_date' ) ;
#84 = CARTESIAN_POINT ( 'NONE',  ( 0.9000000000000000222, 1.102182119232617788E-16, 161.5000000000000000 ) ) ;
#85 = APPROVAL ( #243, 'NEURÈENÝ' ) ;
#86 = CARTESIAN_POINT ( 'NONE',  ( -1.100000000000000089, 1.347111479062088503E-16, 1.700000000000007061 ) ) ;
#87 = DIRECTION ( 'NONE',  ( -1.000000000000000000, 0.000000000000000000, 0.000000000000000000 ) ) ;
#88 = CARTESIAN_POINT ( 'NONE',  ( 0.000000000000000000, 0.000000000000000000, 1.500000000000000000 ) ) ;
#89 = AXIS2_PLACEMENT_3D ( 'NONE', #193, #168, #191 ) ;
#90 = ORIENTED_EDGE ( 'NONE', *, *, #245, .F. ) ;
#91 = ORIENTED_EDGE ( 'NONE', *, *, #182, .T. ) ;
#92 = VERTEX_POINT ( 'NONE', #124 ) ;
#93 = EDGE_CURVE ( 'NONE', #239, #119, #150, .T. ) ;
#94 = CALENDAR_DATE ( 2022, 20, 6 ) ;
#95 = EDGE_LOOP ( 'NONE', ( #90, #261, #91, #237 ) ) ;
#96 = DESIGN_CONTEXT ( 'detailed design', #129, 'design' ) ;
#97 = EDGE_LOOP ( 'NONE', ( #260, #64, #24, #69 ) ) ;
#98 = EDGE_CURVE ( 'NONE', #201, #46, #233, .T. ) ;
#99 = CARTESIAN_POINT ( 'NONE',  ( 0.000000000000000000, 0.000000000000000000, 161.5000000000000000 ) ) ;
#100 = DIRECTION ( 'NONE',  ( 0.000000000000000000, 0.000000000000000000, 1.000000000000000000 ) ) ;
#101 = CARTESIAN_POINT ( 'NONE',  ( 0.000000000000000000, 0.000000000000000000, 1.500000000000000000 ) ) ;
#102 = ORIENTED_EDGE ( 'NONE', *, *, #218, .T. ) ;
#103 = ADVANCED_FACE ( 'NONE', ( #244 ), #1, .T. ) ;
#104 = CARTESIAN_POINT ( 'NONE',  ( -2.000000000000000000, 0.000000000000000000, 1.500000000000000000 ) ) ;
#105 = LOCAL_TIME ( 12, 21, 34.00000000000000000, #115 ) ;
#106 = COORDINATED_UNIVERSAL_TIME_OFFSET ( 1, 0, .AHEAD. ) ;
#107 = CC_DESIGN_PERSON_AND_ORGANIZATION_ASSIGNMENT ( #128, #271, ( #4 ) ) ;
#108 = CIRCLE ( 'NONE', #169, 0.2000000000000000944 ) ;
#109 = DATE_AND_TIME ( #180, #136 ) ;
#110 = CIRCLE ( 'NONE', #146, 2.000000000000000000 ) ;
#111 = DIRECTION ( 'NONE',  ( 1.224646799147353207E-16, 1.000000000000000000, -0.000000000000000000 ) ) ;
#112 = LOCAL_TIME ( 12, 21, 34.00000000000000000, #106 ) ;
#113 = PERSON ( 'NEURÈENÝ', 'NEURÈENÝ', 'NEURÈENÝ', ('NEURÈENÝ'), ('NEURÈENÝ'), ('NEURÈENÝ') ) ;
#114 = DIRECTION ( 'NONE',  ( -1.000000000000000000, 0.000000000000000000, 0.000000000000000000 ) ) ;
#115 = COORDINATED_UNIVERSAL_TIME_OFFSET ( 1, 0, .AHEAD. ) ;
#116 = ORIENTED_EDGE ( 'NONE', *, *, #163, .F. ) ;
#117 = EDGE_LOOP ( 'NONE', ( #141, #217, #199, #49 ) ) ;
#118 = AXIS2_PLACEMENT_3D ( 'NONE', #174, #27, #3 ) ;
#119 = VERTEX_POINT ( 'NONE', #78 ) ;
#120 = EDGE_CURVE ( 'NONE', #192, #45, #68, .T. ) ;
#121 = DIRECTION ( 'NONE',  ( -1.000000000000000000, 0.000000000000000000, 0.000000000000000000 ) ) ;
#122 = ORIENTED_EDGE ( 'NONE', *, *, #47, .T. ) ;
#123 = CARTESIAN_POINT ( 'NONE',  ( 0.000000000000000000, 0.000000000000000000, 1.700000000000007061 ) ) ;
#124 = CARTESIAN_POINT ( 'NONE',  ( 0.9000000000000000222, 1.102182119232617788E-16, 1.700000000000007061 ) ) ;
#125 = APPROVAL_STATUS ( 'not_yet_approved' ) ;
#126 = PERSON_AND_ORGANIZATION ( #113, #292 ) ;
#127 = FACE_OUTER_BOUND ( 'NONE', #149, .T. ) ;
#128 = PERSON_AND_ORGANIZATION ( #113, #292 ) ;
#129 = APPLICATION_CONTEXT ( 'configuration controlled 3d designs of mechanical parts and assemblies' ) ;
#130 = DIRECTION ( 'NONE',  ( 1.000000000000000000, 0.000000000000000000, 0.000000000000000000 ) ) ;
#131 = APPLICATION_PROTOCOL_DEFINITION ( 'international standard', 'config_control_design', 1994, #81 ) ;
#132 = TOROIDAL_SURFACE ( 'NONE', #240, 1.100000000000000089, 0.2000000000000000111 ) ;
#133 = FACE_BOUND ( 'NONE', #147, .T. ) ;
#134 = CARTESIAN_POINT ( 'NONE',  ( 0.000000000000000000, 0.000000000000000000, 1.500000000000000000 ) ) ;
#135 = CIRCLE ( 'NONE', #16, 0.9000000000000000222 ) ;
#136 = LOCAL_TIME ( 12, 21, 34.00000000000000000, #75 ) ;
#137 = CIRCLE ( 'NONE', #267, 2.000000000000000000 ) ;
#138 = CARTESIAN_POINT ( 'NONE',  ( 0.000000000000000000, 0.000000000000000000, 1.500000000000000000 ) ) ;
#139 = APPROVAL_ROLE ( '' ) ;
#140 = TOROIDAL_SURFACE ( 'NONE', #14, 1.100000000000000089, 0.2000000000000000111 ) ;
#141 = ORIENTED_EDGE ( 'NONE', *, *, #274, .F. ) ;
#142 = APPROVAL_PERSON_ORGANIZATION ( #79, #277, #57 ) ;
#143 = VERTEX_POINT ( 'NONE', #178 ) ;
#144 = ORIENTED_EDGE ( 'NONE', *, *, #257, .T. ) ;
#145 = DATE_AND_TIME ( #94, #38 ) ;
#146 = AXIS2_PLACEMENT_3D ( 'NONE', #246, #32, #52 ) ;
#147 = EDGE_LOOP ( 'NONE', ( #302, #256 ) ) ;
#148 = EDGE_LOOP ( 'NONE', ( #144, #42 ) ) ;
#149 = EDGE_LOOP ( 'NONE', ( #25, #304 ) ) ;
#150 = LINE ( 'NONE', #152, #194 ) ;
#151 = EDGE_CURVE ( 'NONE', #173, #201, #227, .T. ) ;
#152 = CARTESIAN_POINT ( 'NONE',  ( -0.9000000000000000222, 0.000000000000000000, 161.5000000000000000 ) ) ;
#153 = CIRCLE ( 'NONE', #196, 0.9000000000000000222 ) ;
#154 = ORIENTED_EDGE ( 'NONE', *, *, #20, .T. ) ;
#155 = DATE_AND_TIME ( #12, #112 ) ;
#156 = APPROVAL ( #216, 'NEURÈENÝ' ) ;
#157 = DIRECTION ( 'NONE',  ( 1.000000000000000000, 0.000000000000000000, 0.000000000000000000 ) ) ;
#158 = DIRECTION ( 'NONE',  ( 0.000000000000000000, 0.000000000000000000, 1.000000000000000000 ) ) ;
#159 = DIRECTION ( 'NONE',  ( 1.000000000000000000, 0.000000000000000000, -0.000000000000000000 ) ) ;
#160 = DIRECTION ( 'NONE',  ( 1.000000000000000000, 0.000000000000000000, 0.000000000000000000 ) ) ;
#161 = AXIS2_PLACEMENT_3D ( 'NONE', #206, #242, #121 ) ;
#162 =( NAMED_UNIT ( * ) SI_UNIT ( $, .STERADIAN. ) SOLID_ANGLE_UNIT ( ) );
#163 = EDGE_CURVE ( 'NONE', #119, #92, #71, .T. ) ;
#164 = AXIS2_PLACEMENT_3D ( 'NONE', #183, #270, #70 ) ;
#165 = ADVANCED_FACE ( 'NONE', ( #289 ), #74, .T. ) ;
#166 = PERSON_AND_ORGANIZATION ( #113, #292 ) ;
#167 = EDGE_LOOP ( 'NONE', ( #307, #171, #154, #170 ) ) ;
#168 = DIRECTION ( 'NONE',  ( 0.000000000000000000, 0.000000000000000000, 1.000000000000000000 ) ) ;
#169 = AXIS2_PLACEMENT_3D ( 'NONE', #61, #186, #58 ) ;
#170 = ORIENTED_EDGE ( 'NONE', *, *, #151, .F. ) ;
#171 = ORIENTED_EDGE ( 'NONE', *, *, #234, .T. ) ;
#172 = AXIS2_PLACEMENT_3D ( 'NONE', #224, #226, #291 ) ;
#173 = VERTEX_POINT ( 'NONE', #35 ) ;
#174 = CARTESIAN_POINT ( 'NONE',  ( 0.000000000000000000, 0.000000000000000000, 1.500000000000000000 ) ) ;
#175 = DIRECTION ( 'NONE',  ( 0.000000000000000000, 0.000000000000000000, 1.000000000000000000 ) ) ;
#176 = PRODUCT_DEFINITION_SHAPE ( 'NONE', 'NONE',  #41 ) ;
#177 = CALENDAR_DATE ( 2022, 20, 6 ) ;
#178 = CARTESIAN_POINT ( 'NONE',  ( 2.000000000000000000, 2.449293598294706414E-16, 1.500000000000000000 ) ) ;
#179 = DIRECTION ( 'NONE',  ( 0.000000000000000000, 0.000000000000000000, 1.000000000000000000 ) ) ;
#180 = CALENDAR_DATE ( 2022, 20, 6 ) ;
#181 = DIRECTION ( 'NONE',  ( -1.000000000000000000, 1.224646799147353207E-16, 0.000000000000000000 ) ) ;
#182 = EDGE_CURVE ( 'NONE', #92, #119, #286, .T. ) ;
#183 = CARTESIAN_POINT ( 'NONE',  ( 0.000000000000000000, 0.000000000000000000, 1.700000000000007061 ) ) ;
#184 = PERSON_AND_ORGANIZATION ( #113, #292 ) ;
#185 = DIRECTION ( 'NONE',  ( -0.000000000000000000, -0.000000000000000000, -1.000000000000000000 ) ) ;
#186 = DIRECTION ( 'NONE',  ( 0.000000000000000000, -1.000000000000000000, 0.000000000000000000 ) ) ;
#187 = DIRECTION ( 'NONE',  ( -0.000000000000000000, -0.000000000000000000, -1.000000000000000000 ) ) ;
#188 = DIRECTION ( 'NONE',  ( -0.000000000000000000, -0.000000000000000000, -1.000000000000000000 ) ) ;
#189 = ADVANCED_FACE ( 'NONE', ( #253 ), #251, .T. ) ;
#190 = DIRECTION ( 'NONE',  ( -0.000000000000000000, -0.000000000000000000, -1.000000000000000000 ) ) ;
#191 = DIRECTION ( 'NONE',  ( 1.000000000000000000, 0.000000000000000000, 0.000000000000000000 ) ) ;
#192 = VERTEX_POINT ( 'NONE', #213 ) ;
#193 = CARTESIAN_POINT ( 'NONE',  ( 0.000000000000000000, 0.000000000000000000, 0.000000000000000000 ) ) ;
#194 = VECTOR ( 'NONE', #72, 1000.000000000000000 ) ;
#195 = CARTESIAN_POINT ( 'NONE',  ( 2.000000000000000000, 2.449293598294706414E-16, 1.500000000000000000 ) ) ;
#196 = AXIS2_PLACEMENT_3D ( 'NONE', #13, #62, #157 ) ;
#197 = CIRCLE ( 'NONE', #54, 0.2000000000000000944 ) ;
#198 = EDGE_LOOP ( 'NONE', ( #122, #102 ) ) ;
#199 = ORIENTED_EDGE ( 'NONE', *, *, #238, .T. ) ;
#200 = ADVANCED_FACE ( 'NONE', ( #127 ), #39, .F. ) ;
#201 = VERTEX_POINT ( 'NONE', #229 ) ;
#202 = DIRECTION ( 'NONE',  ( -0.000000000000000000, -0.000000000000000000, -1.000000000000000000 ) ) ;
#203 = CC_DESIGN_PERSON_AND_ORGANIZATION_ASSIGNMENT ( #184, #228, ( #4 ) ) ;
#204 = SHAPE_DEFINITION_REPRESENTATION ( #176, #212 ) ;
#205 = FACE_OUTER_BOUND ( 'NONE', #97, .T. ) ;
#206 = CARTESIAN_POINT ( 'NONE',  ( 0.000000000000000000, 0.000000000000000000, 161.5000000000000000 ) ) ;
#207 = AXIS2_PLACEMENT_3D ( 'NONE', #138, #185, #298 ) ;
#208 = CALENDAR_DATE ( 2022, 20, 6 ) ;
#209 =( NAMED_UNIT ( * ) PLANE_ANGLE_UNIT ( ) SI_UNIT ( $, .RADIAN. ) );
#210 = ADVANCED_FACE ( 'NONE', ( #279 ), #254, .T. ) ;
#211 = APPROVAL_DATE_TIME ( #145, #156 ) ;
#212 = ADVANCED_BREP_SHAPE_REPRESENTATION ( 'a9f6', ( #66, #89 ), #268 ) ;
#213 = CARTESIAN_POINT ( 'NONE',  ( -1.100000000000000089, 1.347111479062088503E-16, 1.500000000000003553 ) ) ;
#214 = CC_DESIGN_SECURITY_CLASSIFICATION ( #305, ( #4 ) ) ;
#215 = EDGE_LOOP ( 'NONE', ( #116, #287, #65, #76 ) ) ;
#216 = APPROVAL_STATUS ( 'not_yet_approved' ) ;
#217 = ORIENTED_EDGE ( 'NONE', *, *, #182, .F. ) ;
#218 = EDGE_CURVE ( 'NONE', #143, #173, #137, .T. ) ;
#219 = PRODUCT_RELATED_PRODUCT_CATEGORY ( 'detail', '', ( #80 ) ) ;
#220 = CARTESIAN_POINT ( 'NONE',  ( 2.000000000000000000, 2.449293598294706414E-16, 0.000000000000000000 ) ) ;
#221 = CLOSED_SHELL ( 'NONE', ( #67, #165, #189, #210, #269, #200, #17, #103, #51 ) ) ;
#222 = EDGE_CURVE ( 'NONE', #236, #92, #295, .T. ) ;
#223 = DIRECTION ( 'NONE',  ( -0.000000000000000000, -0.000000000000000000, -1.000000000000000000 ) ) ;
#224 = CARTESIAN_POINT ( 'NONE',  ( 0.000000000000000000, 0.000000000000000000, 1.500000000000000000 ) ) ;
#225 = AXIS2_PLACEMENT_3D ( 'NONE', #82, #280, #232 ) ;
#226 = DIRECTION ( 'NONE',  ( -0.000000000000000000, -0.000000000000000000, -1.000000000000000000 ) ) ;
#227 = LINE ( 'NONE', #104, #19 ) ;
#228 = PERSON_AND_ORGANIZATION_ROLE ( 'creator' ) ;
#229 = CARTESIAN_POINT ( 'NONE',  ( -2.000000000000000000, 0.000000000000000000, 0.000000000000000000 ) ) ;
#230 = DATE_AND_TIME ( #208, #275 ) ;
#231 = CARTESIAN_POINT ( 'NONE',  ( 0.000000000000000000, 0.000000000000000000, 1.500000000000000000 ) ) ;
#232 = DIRECTION ( 'NONE',  ( 1.000000000000000000, 0.000000000000000000, -0.000000000000000000 ) ) ;
#233 = CIRCLE ( 'NONE', #23, 2.000000000000000000 ) ;
#234 = EDGE_CURVE ( 'NONE', #143, #46, #255, .T. ) ;
#235 = PERSON_AND_ORGANIZATION ( #113, #292 ) ;
#236 = VERTEX_POINT ( 'NONE', #2 ) ;
#237 = ORIENTED_EDGE ( 'NONE', *, *, #93, .F. ) ;
#238 = EDGE_CURVE ( 'NONE', #92, #45, #108, .T. ) ;
#239 = VERTEX_POINT ( 'NONE', #250 ) ;
#240 = AXIS2_PLACEMENT_3D ( 'NONE', #123, #179, #53 ) ;
#241 = DIRECTION ( 'NONE',  ( 0.000000000000000000, 0.000000000000000000, 1.000000000000000000 ) ) ;
#242 = DIRECTION ( 'NONE',  ( -0.000000000000000000, -0.000000000000000000, -1.000000000000000000 ) ) ;
#243 = APPROVAL_STATUS ( 'not_yet_approved' ) ;
#244 = FACE_OUTER_BOUND ( 'NONE', #148, .T. ) ;
#245 = EDGE_CURVE ( 'NONE', #236, #239, #153, .T. ) ;
#246 = CARTESIAN_POINT ( 'NONE',  ( 0.000000000000000000, 0.000000000000000000, 0.000000000000000000 ) ) ;
#247 = SECURITY_CLASSIFICATION_LEVEL ( 'unclassified' ) ;
#248 = AXIS2_PLACEMENT_3D ( 'NONE', #101, #9, #50 ) ;
#249 = APPROVAL_PERSON_ORGANIZATION ( #126, #85, #59 ) ;
#250 = CARTESIAN_POINT ( 'NONE',  ( -0.9000000000000000222, 0.000000000000000000, 161.5000000000000000 ) ) ;
#251 = CYLINDRICAL_SURFACE ( 'NONE', #26, 2.000000000000000000 ) ;
#252 = DIRECTION ( 'NONE',  ( 0.000000000000000000, 0.000000000000000000, 1.000000000000000000 ) ) ;
#253 = FACE_OUTER_BOUND ( 'NONE', #167, .T. ) ;
#254 = CYLINDRICAL_SURFACE ( 'NONE', #207, 2.000000000000000000 ) ;
#255 = LINE ( 'NONE', #195, #63 ) ;
#256 = ORIENTED_EDGE ( 'NONE', *, *, #120, .T. ) ;
#257 = EDGE_CURVE ( 'NONE', #239, #236, #135, .T. ) ;
#258 = PERSON_AND_ORGANIZATION_ROLE ( 'design_owner' ) ;
#259 = CC_DESIGN_PERSON_AND_ORGANIZATION_ASSIGNMENT ( #294, #7, ( #305 ) ) ;
#260 = ORIENTED_EDGE ( 'NONE', *, *, #222, .F. ) ;
#261 = ORIENTED_EDGE ( 'NONE', *, *, #222, .T. ) ;
#262 = CC_DESIGN_APPROVAL ( #156, ( #41 ) ) ;
#263 = CC_DESIGN_DATE_AND_TIME_ASSIGNMENT ( #31, #290, ( #41 ) ) ;
#264 = DIRECTION ( 'NONE',  ( 1.000000000000000000, 0.000000000000000000, 0.000000000000000000 ) ) ;
#265 = APPROVAL_DATE_TIME ( #155, #85 ) ;
#266 = FACE_OUTER_BOUND ( 'NONE', #215, .T. ) ;
#267 = AXIS2_PLACEMENT_3D ( 'NONE', #88, #252, #11 ) ;
#268 =( GEOMETRIC_REPRESENTATION_CONTEXT ( 3 ) GLOBAL_UNCERTAINTY_ASSIGNED_CONTEXT ( ( #48 ) ) GLOBAL_UNIT_ASSIGNED_CONTEXT ( ( #296, #209, #162 ) ) REPRESENTATION_CONTEXT ( 'NONE', 'WORKASPACE' ) );
#269 = ADVANCED_FACE ( 'NONE', ( #133, #293 ), #77, .T. ) ;
#270 = DIRECTION ( 'NONE',  ( 0.000000000000000000, 0.000000000000000000, 1.000000000000000000 ) ) ;
#271 = PERSON_AND_ORGANIZATION_ROLE ( 'design_supplier' ) ;
#272 = CARTESIAN_POINT ( 'NONE',  ( 0.000000000000000000, 0.000000000000000000, 1.700000000000007061 ) ) ;
#273 = CIRCLE ( 'NONE', #172, 1.100000000000000089 ) ;
#274 = EDGE_CURVE ( 'NONE', #119, #192, #197, .T. ) ;
#275 = LOCAL_TIME ( 12, 21, 34.00000000000000000, #33 ) ;
#276 = DIRECTION ( 'NONE',  ( 0.000000000000000000, 0.000000000000000000, 1.000000000000000000 ) ) ;
#277 = APPROVAL ( #125, 'NEURÈENÝ' ) ;
#278 = CARTESIAN_POINT ( 'NONE',  ( 0.000000000000000000, 0.000000000000000000, 1.700000000000007061 ) ) ;
#279 = FACE_OUTER_BOUND ( 'NONE', #281, .T. ) ;
#280 = DIRECTION ( 'NONE',  ( 0.000000000000000000, 0.000000000000000000, 1.000000000000000000 ) ) ;
#281 = EDGE_LOOP ( 'NONE', ( #21, #300, #284, #301 ) ) ;
#282 = MECHANICAL_CONTEXT ( 'NONE', #81, 'mechanical' ) ;
#283 = CIRCLE ( 'NONE', #118, 2.000000000000000000 ) ;
#284 = ORIENTED_EDGE ( 'NONE', *, *, #151, .T. ) ;
#285 = CC_DESIGN_APPROVAL ( #85, ( #305 ) ) ;
#286 = CIRCLE ( 'NONE', #44, 0.9000000000000000222 ) ;
#287 = ORIENTED_EDGE ( 'NONE', *, *, #274, .T. ) ;
#288 = DIRECTION ( 'NONE',  ( 1.000000000000000000, 0.000000000000000000, 0.000000000000000000 ) ) ;
#289 = FACE_OUTER_BOUND ( 'NONE', #95, .T. ) ;
#290 = DATE_TIME_ROLE ( 'creation_date' ) ;
#291 = DIRECTION ( 'NONE',  ( 1.000000000000000000, 0.000000000000000000, 0.000000000000000000 ) ) ;
#292 = ORGANIZATION ( 'NEURÈENÝ', 'NEURÈENÝ', '' ) ;
#293 = FACE_OUTER_BOUND ( 'NONE', #198, .T. ) ;
#294 = PERSON_AND_ORGANIZATION ( #113, #292 ) ;
#295 = LINE ( 'NONE', #84, #15 ) ;
#296 =( LENGTH_UNIT ( ) NAMED_UNIT ( * ) SI_UNIT ( .MILLI., .METRE. ) );
#297 = CARTESIAN_POINT ( 'NONE',  ( 0.000000000000000000, 0.000000000000000000, 161.5000000000000000 ) ) ;
#298 = DIRECTION ( 'NONE',  ( -1.000000000000000000, 0.000000000000000000, 0.000000000000000000 ) ) ;
#299 = CC_DESIGN_DATE_AND_TIME_ASSIGNMENT ( #109, #83, ( #305 ) ) ;
#300 = ORIENTED_EDGE ( 'NONE', *, *, #47, .F. ) ;
#301 = ORIENTED_EDGE ( 'NONE', *, *, #98, .T. ) ;
#302 = ORIENTED_EDGE ( 'NONE', *, *, #37, .T. ) ;
#303 = COORDINATED_UNIVERSAL_TIME_OFFSET ( 1, 0, .AHEAD. ) ;
#304 = ORIENTED_EDGE ( 'NONE', *, *, #20, .F. ) ;
#305 = SECURITY_CLASSIFICATION ( '', '', #247 ) ;
#306 = AXIS2_PLACEMENT_3D ( 'NONE', #231, #158, #159 ) ;
#307 = ORIENTED_EDGE ( 'NONE', *, *, #218, .F. ) ;
ENDSEC;
END-ISO-10303-21;
