ISO-10303-21;
HEADER;
FILE_DESCRIPTION (( 'STEP AP203' ),
    '1' );
FILE_NAME ('9985.STEP',
    '2022-06-20T10:12:18',
    ( '' ),
    ( '' ),
    'SwSTEP 2.0',
    'SolidWorks 2019',
    '' );
FILE_SCHEMA (( 'CONFIG_CONTROL_DESIGN' ));
ENDSEC;

DATA;
#1 = FACE_OUTER_BOUND ( 'NONE', #197, .T. ) ;
#2 = APPROVAL_PERSON_ORGANIZATION ( #91, #192, #164 ) ;
#3 = CARTESIAN_POINT ( 'NONE',  ( -1.950000000000000178, 2.388061258337339136E-16, 3.000000000000004441 ) ) ;
#4 = UNCERTAINTY_MEASURE_WITH_UNIT (LENGTH_MEASURE( 1.000000000000000082E-05 ), #104, 'distance_accuracy_value', 'NONE');
#5 = CIRCLE ( 'NONE', #238, 1.750000000000000000 ) ;
#6 = DIRECTION ( 'NONE',  ( -0.000000000000000000, -0.000000000000000000, -1.000000000000000000 ) ) ;
#7 = CLOSED_SHELL ( 'NONE', ( #150, #294, #133, #100, #304, #174, #106, #84, #198 ) ) ;
#8 = CC_DESIGN_PERSON_AND_ORGANIZATION_ASSIGNMENT ( #299, #144, ( #76 ) ) ;
#9 = DIRECTION ( 'NONE',  ( 0.000000000000000000, 0.000000000000000000, 1.000000000000000000 ) ) ;
#10 = CC_DESIGN_SECURITY_CLASSIFICATION ( #140, ( #168 ) ) ;
#11 = DIRECTION ( 'NONE',  ( 0.000000000000000000, 0.000000000000000000, 1.000000000000000000 ) ) ;
#12 = DIRECTION ( 'NONE',  ( 0.000000000000000000, 0.000000000000000000, -1.000000000000000000 ) ) ;
#13 = FACE_BOUND ( 'NONE', #267, .T. ) ;
#14 = ORIENTED_EDGE ( 'NONE', *, *, #52, .F. ) ;
#15 = CARTESIAN_POINT ( 'NONE',  ( 0.000000000000000000, 0.000000000000000000, 0.000000000000000000 ) ) ;
#16 = CARTESIAN_POINT ( 'NONE',  ( 0.000000000000000000, 0.000000000000000000, 163.0000000000000000 ) ) ;
#17 = AXIS2_PLACEMENT_3D ( 'NONE', #138, #259, #98 ) ;
#18 = COORDINATED_UNIVERSAL_TIME_OFFSET ( 1, 0, .AHEAD. ) ;
#19 = DATE_AND_TIME ( #302, #216 ) ;
#20 = CARTESIAN_POINT ( 'NONE',  ( 0.000000000000000000, 0.000000000000000000, 3.200000000000008171 ) ) ;
#21 = VECTOR ( 'NONE', #45, 1000.000000000000000 ) ;
#22 = DIRECTION ( 'NONE',  ( -0.000000000000000000, -0.000000000000000000, -1.000000000000000000 ) ) ;
#23 = CARTESIAN_POINT ( 'NONE',  ( 1.750000000000000000, 2.143131898507868297E-16, 163.0000000000000000 ) ) ;
#24 = CARTESIAN_POINT ( 'NONE',  ( 0.000000000000000000, 0.000000000000000000, 163.0000000000000000 ) ) ;
#25 = EDGE_CURVE ( 'NONE', #37, #148, #283, .T. ) ;
#26 = AXIS2_PLACEMENT_3D ( 'NONE', #73, #118, #163 ) ;
#27 = EDGE_CURVE ( 'NONE', #83, #269, #59, .T. ) ;
#28 = CARTESIAN_POINT ( 'NONE',  ( 0.000000000000000000, 0.000000000000000000, 3.000000000000000000 ) ) ;
#29 = ORIENTED_EDGE ( 'NONE', *, *, #27, .T. ) ;
#30 = PERSON ( 'NEURÈENÝ', 'NEURÈENÝ', 'NEURÈENÝ', ('NEURÈENÝ'), ('NEURÈENÝ'), ('NEURÈENÝ') ) ;
#31 = AXIS2_PLACEMENT_3D ( 'NONE', #190, #157, #132 ) ;
#32 = FACE_OUTER_BOUND ( 'NONE', #151, .T. ) ;
#33 = CARTESIAN_POINT ( 'NONE',  ( -1.750000000000000000, 0.000000000000000000, 163.0000000000000000 ) ) ;
#34 = AXIS2_PLACEMENT_3D ( 'NONE', #15, #64, #89 ) ;
#35 = DIRECTION ( 'NONE',  ( 0.000000000000000000, 0.000000000000000000, 1.000000000000000000 ) ) ;
#36 = EDGE_CURVE ( 'NONE', #269, #124, #160, .T. ) ;
#37 = VERTEX_POINT ( 'NONE', #33 ) ;
#38 = VERTEX_POINT ( 'NONE', #74 ) ;
#39 = FACE_OUTER_BOUND ( 'NONE', #65, .T. ) ;
#40 = CC_DESIGN_PERSON_AND_ORGANIZATION_ASSIGNMENT ( #306, #212, ( #140 ) ) ;
#41 = DATE_AND_TIME ( #93, #139 ) ;
#42 = FACE_OUTER_BOUND ( 'NONE', #55, .T. ) ;
#43 = DATE_AND_TIME ( #158, #244 ) ;
#44 = CC_DESIGN_PERSON_AND_ORGANIZATION_ASSIGNMENT ( #155, #228, ( #168 ) ) ;
#45 = DIRECTION ( 'NONE',  ( -0.000000000000000000, -0.000000000000000000, -1.000000000000000000 ) ) ;
#46 = ORIENTED_EDGE ( 'NONE', *, *, #25, .F. ) ;
#47 = COORDINATED_UNIVERSAL_TIME_OFFSET ( 1, 0, .AHEAD. ) ;
#48 = CARTESIAN_POINT ( 'NONE',  ( 0.000000000000000000, 0.000000000000000000, 3.000000000000000000 ) ) ;
#49 = PRODUCT_DEFINITION_SHAPE ( 'NONE', 'NONE',  #53 ) ;
#50 = AXIS2_PLACEMENT_3D ( 'NONE', #247, #266, #54 ) ;
#51 = ORIENTED_EDGE ( 'NONE', *, *, #78, .T. ) ;
#52 = EDGE_CURVE ( 'NONE', #222, #124, #229, .T. ) ;
#53 = PRODUCT_DEFINITION ( 'NEZNÁMÝ', '', #168, #224 ) ;
#54 = DIRECTION ( 'NONE',  ( 1.000000000000000000, 0.000000000000000000, 0.000000000000000000 ) ) ;
#55 = EDGE_LOOP ( 'NONE', ( #128, #248, #277, #274 ) ) ;
#56 = ORIENTED_EDGE ( 'NONE', *, *, #36, .F. ) ;
#57 = DIRECTION ( 'NONE',  ( 0.000000000000000000, 0.000000000000000000, 1.000000000000000000 ) ) ;
#58 = VERTEX_POINT ( 'NONE', #121 ) ;
#59 = CIRCLE ( 'NONE', #251, 0.2000000000000000944 ) ;
#60 = ORIENTED_EDGE ( 'NONE', *, *, #288, .T. ) ;
#61 = CC_DESIGN_APPROVAL ( #192, ( #53 ) ) ;
#62 = CC_DESIGN_APPROVAL ( #281, ( #140 ) ) ;
#63 = ORIENTED_EDGE ( 'NONE', *, *, #234, .T. ) ;
#64 = DIRECTION ( 'NONE',  ( 0.000000000000000000, 0.000000000000000000, 1.000000000000000000 ) ) ;
#65 = EDGE_LOOP ( 'NONE', ( #14, #109, #29, #240 ) ) ;
#66 = EDGE_CURVE ( 'NONE', #148, #83, #305, .T. ) ;
#67 = AXIS2_PLACEMENT_3D ( 'NONE', #245, #11, #125 ) ;
#68 = PERSON_AND_ORGANIZATION_ROLE ( 'creator' ) ;
#69 = CYLINDRICAL_SURFACE ( 'NONE', #167, 3.500000000000000444 ) ;
#70 = COORDINATED_UNIVERSAL_TIME_OFFSET ( 1, 0, .AHEAD. ) ;
#71 = CARTESIAN_POINT ( 'NONE',  ( -1.950000000000000178, 2.388061258337339136E-16, 3.200000000000008171 ) ) ;
#72 = CIRCLE ( 'NONE', #26, 3.500000000000000444 ) ;
#73 = CARTESIAN_POINT ( 'NONE',  ( 0.000000000000000000, 0.000000000000000000, 3.000000000000000000 ) ) ;
#74 = CARTESIAN_POINT ( 'NONE',  ( 3.500000000000000444, 4.286263797015737088E-16, 3.000000000000000000 ) ) ;
#75 = PLANE ( 'NONE',  #205 ) ;
#76 = PRODUCT ( '9985', '9985', '', ( #273 ) ) ;
#77 = LOCAL_TIME ( 12, 12, 18.00000000000000000, #47 ) ;
#78 = EDGE_CURVE ( 'NONE', #222, #83, #264, .T. ) ;
#79 = AXIS2_PLACEMENT_3D ( 'NONE', #170, #242, #296 ) ;
#80 = DIRECTION ( 'NONE',  ( 1.000000000000000000, 0.000000000000000000, 0.000000000000000000 ) ) ;
#81 = DIRECTION ( 'NONE',  ( 0.000000000000000000, -1.000000000000000000, 0.000000000000000000 ) ) ;
#82 = DIRECTION ( 'NONE',  ( -0.000000000000000000, -0.000000000000000000, -1.000000000000000000 ) ) ;
#83 = VERTEX_POINT ( 'NONE', #211 ) ;
#84 = ADVANCED_FACE ( 'NONE', ( #307 ), #75, .T. ) ;
#85 = CYLINDRICAL_SURFACE ( 'NONE', #253, 1.750000000000000000 ) ;
#86 = ORIENTED_EDGE ( 'NONE', *, *, #66, .F. ) ;
#87 = AXIS2_PLACEMENT_3D ( 'NONE', #20, #213, #99 ) ;
#88 = ADVANCED_BREP_SHAPE_REPRESENTATION ( '9985', ( #146, #50 ), #92 ) ;
#89 = DIRECTION ( 'NONE',  ( 1.000000000000000000, 0.000000000000000000, 0.000000000000000000 ) ) ;
#90 = ORIENTED_EDGE ( 'NONE', *, *, #141, .F. ) ;
#91 = PERSON_AND_ORGANIZATION ( #30, #265 ) ;
#92 =( GEOMETRIC_REPRESENTATION_CONTEXT ( 3 ) GLOBAL_UNCERTAINTY_ASSIGNED_CONTEXT ( ( #4 ) ) GLOBAL_UNIT_ASSIGNED_CONTEXT ( ( #104, #295, #291 ) ) REPRESENTATION_CONTEXT ( 'NONE', 'WORKASPACE' ) );
#93 = CALENDAR_DATE ( 2022, 20, 6 ) ;
#94 = EDGE_CURVE ( 'NONE', #83, #222, #271, .T. ) ;
#95 = CYLINDRICAL_SURFACE ( 'NONE', #236, 1.750000000000000000 ) ;
#96 = DATE_TIME_ROLE ( 'classification_date' ) ;
#97 = DIRECTION ( 'NONE',  ( 1.224646799147353207E-16, 1.000000000000000000, -0.000000000000000000 ) ) ;
#98 = DIRECTION ( 'NONE',  ( 1.000000000000000000, 0.000000000000000000, 0.000000000000000000 ) ) ;
#99 = DIRECTION ( 'NONE',  ( 1.000000000000000000, 0.000000000000000000, 0.000000000000000000 ) ) ;
#100 = ADVANCED_FACE ( 'NONE', ( #42 ), #233, .T. ) ;
#101 = CARTESIAN_POINT ( 'NONE',  ( 0.000000000000000000, 0.000000000000000000, 0.000000000000000000 ) ) ;
#102 = ORIENTED_EDGE ( 'NONE', *, *, #119, .T. ) ;
#103 = CIRCLE ( 'NONE', #17, 1.950000000000000178 ) ;
#104 =( LENGTH_UNIT ( ) NAMED_UNIT ( * ) SI_UNIT ( .MILLI., .METRE. ) );
#105 = ORIENTED_EDGE ( 'NONE', *, *, #52, .T. ) ;
#106 = ADVANCED_FACE ( 'NONE', ( #284 ), #95, .T. ) ;
#107 = LINE ( 'NONE', #171, #189 ) ;
#108 = ORIENTED_EDGE ( 'NONE', *, *, #288, .F. ) ;
#109 = ORIENTED_EDGE ( 'NONE', *, *, #94, .F. ) ;
#110 = PLANE ( 'NONE',  #67 ) ;
#111 = ORIENTED_EDGE ( 'NONE', *, *, #94, .T. ) ;
#112 = EDGE_CURVE ( 'NONE', #221, #38, #72, .T. ) ;
#113 = APPROVAL_DATE_TIME ( #303, #270 ) ;
#114 = AXIS2_PLACEMENT_3D ( 'NONE', #16, #9, #196 ) ;
#115 = DATE_TIME_ROLE ( 'creation_date' ) ;
#116 = CC_DESIGN_APPROVAL ( #270, ( #168 ) ) ;
#117 = APPROVAL_PERSON_ORGANIZATION ( #285, #281, #209 ) ;
#118 = DIRECTION ( 'NONE',  ( 0.000000000000000000, 0.000000000000000000, 1.000000000000000000 ) ) ;
#119 = EDGE_CURVE ( 'NONE', #124, #269, #103, .T. ) ;
#120 = DIRECTION ( 'NONE',  ( -1.000000000000000000, 0.000000000000000000, 0.000000000000000000 ) ) ;
#121 = CARTESIAN_POINT ( 'NONE',  ( 3.500000000000000444, 4.286263797015737088E-16, 0.000000000000000000 ) ) ;
#122 = DIRECTION ( 'NONE',  ( -1.000000000000000000, 0.000000000000000000, 0.000000000000000000 ) ) ;
#123 = APPROVAL_PERSON_ORGANIZATION ( #206, #270, #131 ) ;
#124 = VERTEX_POINT ( 'NONE', #3 ) ;
#125 = DIRECTION ( 'NONE',  ( 1.000000000000000000, 0.000000000000000000, -0.000000000000000000 ) ) ;
#126 = EDGE_LOOP ( 'NONE', ( #108, #63, #272, #90 ) ) ;
#127 = CARTESIAN_POINT ( 'NONE',  ( -3.500000000000000444, 0.000000000000000000, 3.000000000000000000 ) ) ;
#128 = ORIENTED_EDGE ( 'NONE', *, *, #234, .F. ) ;
#129 = EDGE_LOOP ( 'NONE', ( #172, #200 ) ) ;
#130 = CARTESIAN_POINT ( 'NONE',  ( 3.500000000000000444, 4.286263797015737088E-16, 3.000000000000000000 ) ) ;
#131 = APPROVAL_ROLE ( '' ) ;
#132 = DIRECTION ( 'NONE',  ( 1.000000000000000000, 0.000000000000000000, 0.000000000000000000 ) ) ;
#133 = ADVANCED_FACE ( 'NONE', ( #279 ), #69, .T. ) ;
#134 = AXIS2_PLACEMENT_3D ( 'NONE', #101, #57, #249 ) ;
#135 = DIRECTION ( 'NONE',  ( -0.000000000000000000, -0.000000000000000000, -1.000000000000000000 ) ) ;
#136 = PERSON_AND_ORGANIZATION_ROLE ( 'design_supplier' ) ;
#137 = DIRECTION ( 'NONE',  ( 1.000000000000000000, 0.000000000000000000, -0.000000000000000000 ) ) ;
#138 = CARTESIAN_POINT ( 'NONE',  ( 0.000000000000000000, 0.000000000000000000, 3.000000000000000000 ) ) ;
#139 = LOCAL_TIME ( 12, 12, 18.00000000000000000, #260 ) ;
#140 = SECURITY_CLASSIFICATION ( '', '', #254 ) ;
#141 = EDGE_CURVE ( 'NONE', #221, #226, #215, .T. ) ;
#142 = APPLICATION_CONTEXT ( 'configuration controlled 3d designs of mechanical parts and assemblies' ) ;
#143 = ORIENTED_EDGE ( 'NONE', *, *, #27, .F. ) ;
#144 = PERSON_AND_ORGANIZATION_ROLE ( 'design_owner' ) ;
#145 = ORIENTED_EDGE ( 'NONE', *, *, #78, .F. ) ;
#146 = MANIFOLD_SOLID_BREP ( 'Zaoblit1', #7 ) ;
#147 = CARTESIAN_POINT ( 'NONE',  ( 0.000000000000000000, 0.000000000000000000, 163.0000000000000000 ) ) ;
#148 = VERTEX_POINT ( 'NONE', #23 ) ;
#149 = ORIENTED_EDGE ( 'NONE', *, *, #243, .T. ) ;
#150 = ADVANCED_FACE ( 'NONE', ( #1 ), #194, .F. ) ;
#151 = EDGE_LOOP ( 'NONE', ( #250, #60 ) ) ;
#152 = CARTESIAN_POINT ( 'NONE',  ( 1.950000000000000178, 0.000000000000000000, 3.000000000000004441 ) ) ;
#153 = ORIENTED_EDGE ( 'NONE', *, *, #66, .T. ) ;
#154 = CALENDAR_DATE ( 2022, 20, 6 ) ;
#155 = PERSON_AND_ORGANIZATION ( #30, #265 ) ;
#156 = EDGE_CURVE ( 'NONE', #226, #58, #214, .T. ) ;
#157 = DIRECTION ( 'NONE',  ( 0.000000000000000000, 0.000000000000000000, 1.000000000000000000 ) ) ;
#158 = CALENDAR_DATE ( 2022, 20, 6 ) ;
#159 = DIRECTION ( 'NONE',  ( -1.000000000000000000, 1.224646799147354686E-16, 0.000000000000000000 ) ) ;
#160 = CIRCLE ( 'NONE', #79, 1.950000000000000178 ) ;
#161 = SHAPE_DEFINITION_REPRESENTATION ( #49, #88 ) ;
#162 = AXIS2_PLACEMENT_3D ( 'NONE', #28, #268, #80 ) ;
#163 = DIRECTION ( 'NONE',  ( 1.000000000000000000, 0.000000000000000000, 0.000000000000000000 ) ) ;
#164 = APPROVAL_ROLE ( '' ) ;
#165 = DIRECTION ( 'NONE',  ( 0.000000000000000000, 0.000000000000000000, 1.000000000000000000 ) ) ;
#166 = DIRECTION ( 'NONE',  ( -0.000000000000000000, -0.000000000000000000, -1.000000000000000000 ) ) ;
#167 = AXIS2_PLACEMENT_3D ( 'NONE', #231, #22, #122 ) ;
#168 = PRODUCT_DEFINITION_FORMATION_WITH_SPECIFIED_SOURCE ( 'LIBOVOLNÝ', '', #76, .NOT_KNOWN. ) ;
#169 = DIRECTION ( 'NONE',  ( 1.000000000000000000, 0.000000000000000000, 0.000000000000000000 ) ) ;
#170 = CARTESIAN_POINT ( 'NONE',  ( 0.000000000000000000, 0.000000000000000000, 3.000000000000000000 ) ) ;
#171 = CARTESIAN_POINT ( 'NONE',  ( -1.750000000000000000, 0.000000000000000000, 163.0000000000000000 ) ) ;
#172 = ORIENTED_EDGE ( 'NONE', *, *, #156, .F. ) ;
#173 = AXIS2_PLACEMENT_3D ( 'NONE', #287, #165, #261 ) ;
#174 = ADVANCED_FACE ( 'NONE', ( #289 ), #184, .F. ) ;
#175 = APPLICATION_PROTOCOL_DEFINITION ( 'international standard', 'config_control_design', 1994, #142 ) ;
#176 = CIRCLE ( 'NONE', #34, 3.500000000000000444 ) ;
#177 = ORIENTED_EDGE ( 'NONE', *, *, #36, .T. ) ;
#178 = CARTESIAN_POINT ( 'NONE',  ( 0.000000000000000000, 0.000000000000000000, 3.200000000000008171 ) ) ;
#179 = ORIENTED_EDGE ( 'NONE', *, *, #237, .F. ) ;
#180 = APPROVAL_DATE_TIME ( #41, #192 ) ;
#181 = APPROVAL_STATUS ( 'not_yet_approved' ) ;
#182 = CC_DESIGN_DATE_AND_TIME_ASSIGNMENT ( #19, #96, ( #140 ) ) ;
#183 = COORDINATED_UNIVERSAL_TIME_OFFSET ( 1, 0, .AHEAD. ) ;
#184 = PLANE ( 'NONE',  #134 ) ;
#185 = APPROVAL_DATE_TIME ( #43, #281 ) ;
#186 = CARTESIAN_POINT ( 'NONE',  ( 0.000000000000000000, 0.000000000000000000, 163.0000000000000000 ) ) ;
#187 = CC_DESIGN_PERSON_AND_ORGANIZATION_ASSIGNMENT ( #301, #68, ( #53 ) ) ;
#188 = APPLICATION_PROTOCOL_DEFINITION ( 'international standard', 'config_control_design', 1994, #210 ) ;
#189 = VECTOR ( 'NONE', #6, 1000.000000000000000 ) ;
#190 = CARTESIAN_POINT ( 'NONE',  ( 0.000000000000000000, 0.000000000000000000, 3.200000000000008171 ) ) ;
#191 = DIRECTION ( 'NONE',  ( 1.000000000000000000, 0.000000000000000000, 0.000000000000000000 ) ) ;
#192 = APPROVAL ( #227, 'NEURÈENÝ' ) ;
#193 = VECTOR ( 'NONE', #292, 1000.000000000000000 ) ;
#194 = TOROIDAL_SURFACE ( 'NONE', #87, 1.950000000000000178, 0.2000000000000000111 ) ;
#195 = CARTESIAN_POINT ( 'NONE',  ( -3.500000000000000444, 0.000000000000000000, 0.000000000000000000 ) ) ;
#196 = DIRECTION ( 'NONE',  ( 1.000000000000000000, 0.000000000000000000, 0.000000000000000000 ) ) ;
#197 = EDGE_LOOP ( 'NONE', ( #145, #105, #56, #143 ) ) ;
#198 = ADVANCED_FACE ( 'NONE', ( #39 ), #219, .F. ) ;
#199 = DIRECTION ( 'NONE',  ( 0.000000000000000000, 0.000000000000000000, 1.000000000000000000 ) ) ;
#200 = ORIENTED_EDGE ( 'NONE', *, *, #276, .F. ) ;
#201 = VECTOR ( 'NONE', #257, 1000.000000000000000 ) ;
#202 = CIRCLE ( 'NONE', #162, 3.500000000000000444 ) ;
#203 = EDGE_LOOP ( 'NONE', ( #246, #149 ) ) ;
#204 = PERSON_AND_ORGANIZATION ( #30, #265 ) ;
#205 = AXIS2_PLACEMENT_3D ( 'NONE', #186, #232, #137 ) ;
#206 = PERSON_AND_ORGANIZATION ( #30, #265 ) ;
#207 = AXIS2_PLACEMENT_3D ( 'NONE', #178, #35, #169 ) ;
#208 = DIRECTION ( 'NONE',  ( 0.000000000000000000, 0.000000000000000000, 1.000000000000000000 ) ) ;
#209 = APPROVAL_ROLE ( '' ) ;
#210 = APPLICATION_CONTEXT ( 'configuration controlled 3d designs of mechanical parts and assemblies' ) ;
#211 = CARTESIAN_POINT ( 'NONE',  ( 1.750000000000000000, 2.143131898507868297E-16, 3.200000000000008171 ) ) ;
#212 = PERSON_AND_ORGANIZATION_ROLE ( 'classification_officer' ) ;
#213 = DIRECTION ( 'NONE',  ( 0.000000000000000000, 0.000000000000000000, 1.000000000000000000 ) ) ;
#214 = CIRCLE ( 'NONE', #286, 3.500000000000000444 ) ;
#215 = LINE ( 'NONE', #255, #21 ) ;
#216 = LOCAL_TIME ( 12, 12, 18.00000000000000000, #183 ) ;
#217 = AXIS2_PLACEMENT_3D ( 'NONE', #71, #97, #159 ) ;
#218 = EDGE_LOOP ( 'NONE', ( #235, #153, #111, #179 ) ) ;
#219 = TOROIDAL_SURFACE ( 'NONE', #207, 1.950000000000000178, 0.2000000000000000111 ) ;
#220 = CARTESIAN_POINT ( 'NONE',  ( -1.750000000000000000, 0.000000000000000000, 3.200000000000008171 ) ) ;
#221 = VERTEX_POINT ( 'NONE', #127 ) ;
#222 = VERTEX_POINT ( 'NONE', #220 ) ;
#223 = PRODUCT_RELATED_PRODUCT_CATEGORY ( 'detail', '', ( #76 ) ) ;
#224 = DESIGN_CONTEXT ( 'detailed design', #210, 'design' ) ;
#225 = LINE ( 'NONE', #130, #193 ) ;
#226 = VERTEX_POINT ( 'NONE', #195 ) ;
#227 = APPROVAL_STATUS ( 'not_yet_approved' ) ;
#228 = PERSON_AND_ORGANIZATION_ROLE ( 'creator' ) ;
#229 = CIRCLE ( 'NONE', #217, 0.1999999999999998723 ) ;
#230 = CARTESIAN_POINT ( 'NONE',  ( 0.000000000000000000, 0.000000000000000000, 0.000000000000000000 ) ) ;
#231 = CARTESIAN_POINT ( 'NONE',  ( 0.000000000000000000, 0.000000000000000000, 3.000000000000000000 ) ) ;
#232 = DIRECTION ( 'NONE',  ( 0.000000000000000000, 0.000000000000000000, 1.000000000000000000 ) ) ;
#233 = CYLINDRICAL_SURFACE ( 'NONE', #256, 3.500000000000000444 ) ;
#234 = EDGE_CURVE ( 'NONE', #38, #58, #225, .T. ) ;
#235 = ORIENTED_EDGE ( 'NONE', *, *, #243, .F. ) ;
#236 = AXIS2_PLACEMENT_3D ( 'NONE', #24, #135, #262 ) ;
#237 = EDGE_CURVE ( 'NONE', #37, #222, #107, .T. ) ;
#238 = AXIS2_PLACEMENT_3D ( 'NONE', #297, #199, #239 ) ;
#239 = DIRECTION ( 'NONE',  ( 1.000000000000000000, 0.000000000000000000, 0.000000000000000000 ) ) ;
#240 = ORIENTED_EDGE ( 'NONE', *, *, #119, .F. ) ;
#241 = DIRECTION ( 'NONE',  ( -1.000000000000000000, 0.000000000000000000, 0.000000000000000000 ) ) ;
#242 = DIRECTION ( 'NONE',  ( -0.000000000000000000, -0.000000000000000000, -1.000000000000000000 ) ) ;
#243 = EDGE_CURVE ( 'NONE', #148, #37, #5, .T. ) ;
#244 = LOCAL_TIME ( 12, 12, 18.00000000000000000, #70 ) ;
#245 = CARTESIAN_POINT ( 'NONE',  ( 0.000000000000000000, 0.000000000000000000, 3.000000000000000000 ) ) ;
#246 = ORIENTED_EDGE ( 'NONE', *, *, #25, .T. ) ;
#247 = CARTESIAN_POINT ( 'NONE',  ( 0.000000000000000000, 0.000000000000000000, 0.000000000000000000 ) ) ;
#248 = ORIENTED_EDGE ( 'NONE', *, *, #112, .F. ) ;
#249 = DIRECTION ( 'NONE',  ( 1.000000000000000000, 0.000000000000000000, -0.000000000000000000 ) ) ;
#250 = ORIENTED_EDGE ( 'NONE', *, *, #112, .T. ) ;
#251 = AXIS2_PLACEMENT_3D ( 'NONE', #293, #81, #12 ) ;
#252 = CC_DESIGN_DATE_AND_TIME_ASSIGNMENT ( #280, #115, ( #53 ) ) ;
#253 = AXIS2_PLACEMENT_3D ( 'NONE', #147, #82, #241 ) ;
#254 = SECURITY_CLASSIFICATION_LEVEL ( 'unclassified' ) ;
#255 = CARTESIAN_POINT ( 'NONE',  ( -3.500000000000000444, 0.000000000000000000, 3.000000000000000000 ) ) ;
#256 = AXIS2_PLACEMENT_3D ( 'NONE', #48, #166, #120 ) ;
#257 = DIRECTION ( 'NONE',  ( -0.000000000000000000, -0.000000000000000000, -1.000000000000000000 ) ) ;
#258 = APPROVAL_STATUS ( 'not_yet_approved' ) ;
#259 = DIRECTION ( 'NONE',  ( -0.000000000000000000, -0.000000000000000000, -1.000000000000000000 ) ) ;
#260 = COORDINATED_UNIVERSAL_TIME_OFFSET ( 1, 0, .AHEAD. ) ;
#261 = DIRECTION ( 'NONE',  ( 1.000000000000000000, 0.000000000000000000, 0.000000000000000000 ) ) ;
#262 = DIRECTION ( 'NONE',  ( -1.000000000000000000, 0.000000000000000000, 0.000000000000000000 ) ) ;
#263 = LOCAL_TIME ( 12, 12, 18.00000000000000000, #18 ) ;
#264 = CIRCLE ( 'NONE', #31, 1.750000000000000000 ) ;
#265 = ORGANIZATION ( 'NEURÈENÝ', 'NEURÈENÝ', '' ) ;
#266 = DIRECTION ( 'NONE',  ( 0.000000000000000000, 0.000000000000000000, 1.000000000000000000 ) ) ;
#267 = EDGE_LOOP ( 'NONE', ( #177, #102 ) ) ;
#268 = DIRECTION ( 'NONE',  ( 0.000000000000000000, 0.000000000000000000, 1.000000000000000000 ) ) ;
#269 = VERTEX_POINT ( 'NONE', #152 ) ;
#270 = APPROVAL ( #181, 'NEURÈENÝ' ) ;
#271 = CIRCLE ( 'NONE', #173, 1.750000000000000000 ) ;
#272 = ORIENTED_EDGE ( 'NONE', *, *, #276, .T. ) ;
#273 = MECHANICAL_CONTEXT ( 'NONE', #142, 'mechanical' ) ;
#274 = ORIENTED_EDGE ( 'NONE', *, *, #156, .T. ) ;
#275 = FACE_OUTER_BOUND ( 'NONE', #218, .T. ) ;
#276 = EDGE_CURVE ( 'NONE', #58, #226, #176, .T. ) ;
#277 = ORIENTED_EDGE ( 'NONE', *, *, #141, .T. ) ;
#278 = CALENDAR_DATE ( 2022, 20, 6 ) ;
#279 = FACE_OUTER_BOUND ( 'NONE', #126, .T. ) ;
#280 = DATE_AND_TIME ( #154, #263 ) ;
#281 = APPROVAL ( #258, 'NEURÈENÝ' ) ;
#282 = CARTESIAN_POINT ( 'NONE',  ( 1.750000000000000000, 2.143131898507868297E-16, 163.0000000000000000 ) ) ;
#283 = CIRCLE ( 'NONE', #114, 1.750000000000000000 ) ;
#284 = FACE_OUTER_BOUND ( 'NONE', #298, .T. ) ;
#285 = PERSON_AND_ORGANIZATION ( #30, #265 ) ;
#286 = AXIS2_PLACEMENT_3D ( 'NONE', #230, #208, #191 ) ;
#287 = CARTESIAN_POINT ( 'NONE',  ( 0.000000000000000000, 0.000000000000000000, 3.200000000000008171 ) ) ;
#288 = EDGE_CURVE ( 'NONE', #38, #221, #202, .T. ) ;
#289 = FACE_OUTER_BOUND ( 'NONE', #129, .T. ) ;
#290 = CC_DESIGN_PERSON_AND_ORGANIZATION_ASSIGNMENT ( #204, #136, ( #168 ) ) ;
#291 =( NAMED_UNIT ( * ) SI_UNIT ( $, .STERADIAN. ) SOLID_ANGLE_UNIT ( ) );
#292 = DIRECTION ( 'NONE',  ( -0.000000000000000000, -0.000000000000000000, -1.000000000000000000 ) ) ;
#293 = CARTESIAN_POINT ( 'NONE',  ( 1.950000000000000178, 0.000000000000000000, 3.200000000000008171 ) ) ;
#294 = ADVANCED_FACE ( 'NONE', ( #275 ), #85, .T. ) ;
#295 =( NAMED_UNIT ( * ) PLANE_ANGLE_UNIT ( ) SI_UNIT ( $, .RADIAN. ) );
#296 = DIRECTION ( 'NONE',  ( 1.000000000000000000, 0.000000000000000000, 0.000000000000000000 ) ) ;
#297 = CARTESIAN_POINT ( 'NONE',  ( 0.000000000000000000, 0.000000000000000000, 163.0000000000000000 ) ) ;
#298 = EDGE_LOOP ( 'NONE', ( #86, #46, #300, #51 ) ) ;
#299 = PERSON_AND_ORGANIZATION ( #30, #265 ) ;
#300 = ORIENTED_EDGE ( 'NONE', *, *, #237, .T. ) ;
#301 = PERSON_AND_ORGANIZATION ( #30, #265 ) ;
#302 = CALENDAR_DATE ( 2022, 20, 6 ) ;
#303 = DATE_AND_TIME ( #278, #77 ) ;
#304 = ADVANCED_FACE ( 'NONE', ( #13, #32 ), #110, .T. ) ;
#305 = LINE ( 'NONE', #282, #201 ) ;
#306 = PERSON_AND_ORGANIZATION ( #30, #265 ) ;
#307 = FACE_OUTER_BOUND ( 'NONE', #203, .T. ) ;
ENDSEC;
END-ISO-10303-21;
