ISO-10303-21;
HEADER;
FILE_DESCRIPTION (( 'STEP AP203' ),
    '1' );
FILE_NAME ('af12.STEP',
    '2022-06-20T10:29:09',
    ( '' ),
    ( '' ),
    'SwSTEP 2.0',
    'SolidWorks 2019',
    '' );
FILE_SCHEMA (( 'CONFIG_CONTROL_DESIGN' ));
ENDSEC;

DATA;
#1 = EDGE_LOOP ( 'NONE', ( #61, #233, #50, #232 ) ) ;
#2 = PERSON_AND_ORGANIZATION ( #40, #90 ) ;
#3 = ORIENTED_EDGE ( 'NONE', *, *, #275, .F. ) ;
#4 = ORIENTED_EDGE ( 'NONE', *, *, #288, .F. ) ;
#5 = EDGE_LOOP ( 'NONE', ( #24, #255, #128, #306 ) ) ;
#6 = EDGE_CURVE ( 'NONE', #108, #259, #80, .T. ) ;
#7 = CYLINDRICAL_SURFACE ( 'NONE', #157, 0.5000000000000000000 ) ;
#8 = CIRCLE ( 'NONE', #170, 0.5000000000000000000 ) ;
#9 = DIRECTION ( 'NONE',  ( -0.000000000000000000, -0.000000000000000000, -1.000000000000000000 ) ) ;
#10 = PERSON_AND_ORGANIZATION_ROLE ( 'classification_officer' ) ;
#11 = EDGE_CURVE ( 'NONE', #164, #30, #290, .T. ) ;
#12 = AXIS2_PLACEMENT_3D ( 'NONE', #279, #155, #278 ) ;
#13 = FACE_OUTER_BOUND ( 'NONE', #68, .T. ) ;
#14 = PERSON_AND_ORGANIZATION ( #40, #90 ) ;
#15 = ADVANCED_FACE ( 'NONE', ( #143, #274 ), #102, .T. ) ;
#16 = FACE_OUTER_BOUND ( 'NONE', #112, .T. ) ;
#17 = DIRECTION ( 'NONE',  ( 0.000000000000000000, 0.000000000000000000, 1.000000000000000000 ) ) ;
#18 = AXIS2_PLACEMENT_3D ( 'NONE', #126, #209, #253 ) ;
#19 = DIRECTION ( 'NONE',  ( 0.000000000000000000, 0.000000000000000000, 1.000000000000000000 ) ) ;
#20 = DIRECTION ( 'NONE',  ( 1.000000000000000000, 0.000000000000000000, 0.000000000000000000 ) ) ;
#21 = DIRECTION ( 'NONE',  ( 1.000000000000000000, 0.000000000000000000, 0.000000000000000000 ) ) ;
#22 = CIRCLE ( 'NONE', #304, 0.5000000000000000000 ) ;
#23 = CARTESIAN_POINT ( 'NONE',  ( 0.6999999999999999556, 0.000000000000000000, 1.199999999999999289 ) ) ;
#24 = ORIENTED_EDGE ( 'NONE', *, *, #161, .F. ) ;
#25 = CARTESIAN_POINT ( 'NONE',  ( 0.000000000000000000, 0.000000000000000000, 0.000000000000000000 ) ) ;
#26 = ORIENTED_EDGE ( 'NONE', *, *, #171, .T. ) ;
#27 =( NAMED_UNIT ( * ) PLANE_ANGLE_UNIT ( ) SI_UNIT ( $, .RADIAN. ) );
#28 = ORIENTED_EDGE ( 'NONE', *, *, #146, .T. ) ;
#29 = APPROVAL_PERSON_ORGANIZATION ( #120, #116, #244 ) ;
#30 = VERTEX_POINT ( 'NONE', #149 ) ;
#31 = CARTESIAN_POINT ( 'NONE',  ( 1.250000000000000000, 1.530808498934191571E-16, 1.199999999999999956 ) ) ;
#32 = APPROVAL_STATUS ( 'not_yet_approved' ) ;
#33 = CARTESIAN_POINT ( 'NONE',  ( -0.5000000000000000000, 0.000000000000000000, 101.2000000000000171 ) ) ;
#34 = LOCAL_TIME ( 12, 29, 9.000000000000000000, #211 ) ;
#35 = DATE_AND_TIME ( #148, #202 ) ;
#36 = APPROVAL_DATE_TIME ( #269, #116 ) ;
#37 = CARTESIAN_POINT ( 'NONE',  ( 0.000000000000000000, 0.000000000000000000, 101.2000000000000171 ) ) ;
#38 = ADVANCED_FACE ( 'NONE', ( #13 ), #7, .T. ) ;
#39 = CARTESIAN_POINT ( 'NONE',  ( -0.5000000000000000000, 0.000000000000000000, 101.2000000000000171 ) ) ;
#40 = PERSON ( 'NEURÈENÝ', 'NEURÈENÝ', 'NEURÈENÝ', ('NEURÈENÝ'), ('NEURÈENÝ'), ('NEURÈENÝ') ) ;
#41 = PLANE ( 'NONE',  #88 ) ;
#42 = CARTESIAN_POINT ( 'NONE',  ( 0.000000000000000000, 0.000000000000000000, 1.199999999999999956 ) ) ;
#43 = CIRCLE ( 'NONE', #84, 0.6999999999999999556 ) ;
#44 = ORIENTED_EDGE ( 'NONE', *, *, #174, .F. ) ;
#45 = VECTOR ( 'NONE', #56, 1000.000000000000000 ) ;
#46 = AXIS2_PLACEMENT_3D ( 'NONE', #178, #19, #158 ) ;
#47 = VERTEX_POINT ( 'NONE', #172 ) ;
#48 = ORIENTED_EDGE ( 'NONE', *, *, #186, .T. ) ;
#49 = ADVANCED_FACE ( 'NONE', ( #115 ), #41, .F. ) ;
#50 = ORIENTED_EDGE ( 'NONE', *, *, #288, .T. ) ;
#51 = APPLICATION_PROTOCOL_DEFINITION ( 'international standard', 'config_control_design', 1994, #139 ) ;
#52 = CARTESIAN_POINT ( 'NONE',  ( 0.000000000000000000, 0.000000000000000000, 1.399999999999998579 ) ) ;
#53 = PERSON_AND_ORGANIZATION_ROLE ( 'design_owner' ) ;
#54 = APPROVAL_PERSON_ORGANIZATION ( #2, #229, #136 ) ;
#55 = DIRECTION ( 'NONE',  ( 1.000000000000000000, 0.000000000000000000, -0.000000000000000000 ) ) ;
#56 = DIRECTION ( 'NONE',  ( -0.000000000000000000, -0.000000000000000000, -1.000000000000000000 ) ) ;
#57 = APPROVAL_DATE_TIME ( #281, #191 ) ;
#58 = DIRECTION ( 'NONE',  ( 0.000000000000000000, 0.000000000000000000, 1.000000000000000000 ) ) ;
#59 = SECURITY_CLASSIFICATION ( '', '', #267 ) ;
#60 = DIRECTION ( 'NONE',  ( -0.000000000000000000, -0.000000000000000000, -1.000000000000000000 ) ) ;
#61 = ORIENTED_EDGE ( 'NONE', *, *, #146, .F. ) ;
#62 = LINE ( 'NONE', #182, #247 ) ;
#63 = EDGE_CURVE ( 'NONE', #108, #110, #71, .T. ) ;
#64 = ORIENTED_EDGE ( 'NONE', *, *, #250, .F. ) ;
#65 = VECTOR ( 'NONE', #277, 1000.000000000000000 ) ;
#66 = COORDINATED_UNIVERSAL_TIME_OFFSET ( 1, 0, .AHEAD. ) ;
#67 = CARTESIAN_POINT ( 'NONE',  ( -0.5000000000000000000, 0.000000000000000000, 1.399999999999998579 ) ) ;
#68 = EDGE_LOOP ( 'NONE', ( #44, #160, #228, #114 ) ) ;
#69 = VERTEX_POINT ( 'NONE', #294 ) ;
#70 = ORIENTED_EDGE ( 'NONE', *, *, #174, .T. ) ;
#71 = CIRCLE ( 'NONE', #270, 0.5000000000000000000 ) ;
#72 = CARTESIAN_POINT ( 'NONE',  ( 0.000000000000000000, 0.000000000000000000, 0.000000000000000000 ) ) ;
#73 = AXIS2_PLACEMENT_3D ( 'NONE', #118, #201, #100 ) ;
#74 = FACE_OUTER_BOUND ( 'NONE', #215, .T. ) ;
#75 = PRODUCT_RELATED_PRODUCT_CATEGORY ( 'detail', '', ( #284 ) ) ;
#76 = APPROVAL_PERSON_ORGANIZATION ( #97, #191, #98 ) ;
#77 = CARTESIAN_POINT ( 'NONE',  ( 0.000000000000000000, 0.000000000000000000, 1.199999999999999956 ) ) ;
#78 = CLOSED_SHELL ( 'NONE', ( #137, #38, #221, #95, #15, #49, #302, #123, #208 ) ) ;
#79 = AXIS2_PLACEMENT_3D ( 'NONE', #276, #207, #183 ) ;
#80 = LINE ( 'NONE', #33, #45 ) ;
#81 = FACE_OUTER_BOUND ( 'NONE', #5, .T. ) ;
#82 = AXIS2_PLACEMENT_3D ( 'NONE', #77, #249, #236 ) ;
#83 = DIRECTION ( 'NONE',  ( 0.000000000000000000, 0.000000000000000000, 1.000000000000000000 ) ) ;
#84 = AXIS2_PLACEMENT_3D ( 'NONE', #204, #227, #300 ) ;
#85 = EDGE_CURVE ( 'NONE', #130, #87, #127, .T. ) ;
#86 = CYLINDRICAL_SURFACE ( 'NONE', #79, 0.5000000000000000000 ) ;
#87 = VERTEX_POINT ( 'NONE', #265 ) ;
#88 = AXIS2_PLACEMENT_3D ( 'NONE', #271, #17, #93 ) ;
#89 = CALENDAR_DATE ( 2022, 20, 6 ) ;
#90 = ORGANIZATION ( 'NEURÈENÝ', 'NEURÈENÝ', '' ) ;
#91 = ORIENTED_EDGE ( 'NONE', *, *, #292, .T. ) ;
#92 = EDGE_LOOP ( 'NONE', ( #3, #28, #106, #4 ) ) ;
#93 = DIRECTION ( 'NONE',  ( 1.000000000000000000, 0.000000000000000000, -0.000000000000000000 ) ) ;
#94 = AXIS2_PLACEMENT_3D ( 'NONE', #105, #226, #21 ) ;
#95 = ADVANCED_FACE ( 'NONE', ( #99 ), #124, .T. ) ;
#96 = ORIENTED_EDGE ( 'NONE', *, *, #275, .T. ) ;
#97 = PERSON_AND_ORGANIZATION ( #40, #90 ) ;
#98 = APPROVAL_ROLE ( '' ) ;
#99 = FACE_OUTER_BOUND ( 'NONE', #1, .T. ) ;
#100 = DIRECTION ( 'NONE',  ( -1.000000000000000000, 0.000000000000000000, 0.000000000000000000 ) ) ;
#101 = CC_DESIGN_SECURITY_CLASSIFICATION ( #59, ( #135 ) ) ;
#102 = PLANE ( 'NONE',  #205 ) ;
#103 = TOROIDAL_SURFACE ( 'NONE', #261, 0.6999999999999999556, 0.2000000000000000111 ) ;
#104 = CC_DESIGN_DATE_AND_TIME_ASSIGNMENT ( #35, #119, ( #59 ) ) ;
#105 = CARTESIAN_POINT ( 'NONE',  ( 0.000000000000000000, 0.000000000000000000, 1.399999999999998579 ) ) ;
#106 = ORIENTED_EDGE ( 'NONE', *, *, #242, .T. ) ;
#107 = DIRECTION ( 'NONE',  ( 1.000000000000000000, 0.000000000000000000, 0.000000000000000000 ) ) ;
#108 = VERTEX_POINT ( 'NONE', #39 ) ;
#109 = PERSON_AND_ORGANIZATION_ROLE ( 'creator' ) ;
#110 = VERTEX_POINT ( 'NONE', #140 ) ;
#111 = PRODUCT_DEFINITION ( 'NEZNÁMÝ', '', #135, #286 ) ;
#112 = EDGE_LOOP ( 'NONE', ( #287, #70 ) ) ;
#113 = MANIFOLD_SOLID_BREP ( 'Zaoblit1', #78 ) ;
#114 = ORIENTED_EDGE ( 'NONE', *, *, #6, .F. ) ;
#115 = FACE_OUTER_BOUND ( 'NONE', #133, .T. ) ;
#116 = APPROVAL ( #142, 'NEURÈENÝ' ) ;
#117 = CC_DESIGN_PERSON_AND_ORGANIZATION_ASSIGNMENT ( #222, #199, ( #135 ) ) ;
#118 = CARTESIAN_POINT ( 'NONE',  ( 0.000000000000000000, 0.000000000000000000, 1.199999999999999956 ) ) ;
#119 = DATE_TIME_ROLE ( 'classification_date' ) ;
#120 = PERSON_AND_ORGANIZATION ( #40, #90 ) ;
#121 = AXIS2_PLACEMENT_3D ( 'NONE', #72, #263, #291 ) ;
#122 = CARTESIAN_POINT ( 'NONE',  ( 0.000000000000000000, 0.000000000000000000, 1.199999999999999956 ) ) ;
#123 = ADVANCED_FACE ( 'NONE', ( #16 ), #298, .T. ) ;
#124 = CYLINDRICAL_SURFACE ( 'NONE', #73, 1.250000000000000000 ) ;
#125 = CARTESIAN_POINT ( 'NONE',  ( -0.6999999999999999556, 8.572527594031471957E-17, 1.399999999999998579 ) ) ;
#126 = CARTESIAN_POINT ( 'NONE',  ( 0.000000000000000000, 0.000000000000000000, 0.000000000000000000 ) ) ;
#127 = CIRCLE ( 'NONE', #243, 1.250000000000000000 ) ;
#128 = ORIENTED_EDGE ( 'NONE', *, *, #6, .T. ) ;
#129 = CIRCLE ( 'NONE', #18, 1.250000000000000000 ) ;
#130 = VERTEX_POINT ( 'NONE', #145 ) ;
#131 = CARTESIAN_POINT ( 'NONE',  ( 0.5000000000000000000, 6.123233995736766036E-17, 101.2000000000000171 ) ) ;
#132 = EDGE_LOOP ( 'NONE', ( #184, #96 ) ) ;
#133 = EDGE_LOOP ( 'NONE', ( #64, #260 ) ) ;
#134 = PRODUCT_DEFINITION_SHAPE ( 'NONE', 'NONE',  #111 ) ;
#135 = PRODUCT_DEFINITION_FORMATION_WITH_SPECIFIED_SOURCE ( 'LIBOVOLNÝ', '', #284, .NOT_KNOWN. ) ;
#136 = APPROVAL_ROLE ( '' ) ;
#137 = ADVANCED_FACE ( 'NONE', ( #74 ), #103, .F. ) ;
#138 = DIRECTION ( 'NONE',  ( 0.000000000000000000, 0.000000000000000000, 1.000000000000000000 ) ) ;
#139 = APPLICATION_CONTEXT ( 'configuration controlled 3d designs of mechanical parts and assemblies' ) ;
#140 = CARTESIAN_POINT ( 'NONE',  ( 0.5000000000000000000, 6.123233995736766036E-17, 101.2000000000000171 ) ) ;
#141 = CALENDAR_DATE ( 2022, 20, 6 ) ;
#142 = APPROVAL_STATUS ( 'not_yet_approved' ) ;
#143 = FACE_BOUND ( 'NONE', #187, .T. ) ;
#144 = PERSON_AND_ORGANIZATION ( #40, #90 ) ;
#145 = CARTESIAN_POINT ( 'NONE',  ( -1.250000000000000000, 0.000000000000000000, 1.199999999999999956 ) ) ;
#146 = EDGE_CURVE ( 'NONE', #87, #47, #167, .T. ) ;
#147 = CC_DESIGN_PERSON_AND_ORGANIZATION_ASSIGNMENT ( #239, #109, ( #111 ) ) ;
#148 = CALENDAR_DATE ( 2022, 20, 6 ) ;
#149 = CARTESIAN_POINT ( 'NONE',  ( -0.6999999999999999556, 8.572527594031473190E-17, 1.199999999999999289 ) ) ;
#150 = SHAPE_DEFINITION_REPRESENTATION ( #134, #156 ) ;
#151 = FACE_OUTER_BOUND ( 'NONE', #258, .T. ) ;
#152 = CIRCLE ( 'NONE', #262, 1.250000000000000000 ) ;
#153 = FACE_OUTER_BOUND ( 'NONE', #92, .T. ) ;
#154 = DIRECTION ( 'NONE',  ( -0.000000000000000000, -0.000000000000000000, -1.000000000000000000 ) ) ;
#155 = DIRECTION ( 'NONE',  ( 0.000000000000000000, -1.000000000000000000, 0.000000000000000000 ) ) ;
#156 = ADVANCED_BREP_SHAPE_REPRESENTATION ( 'af12', ( #113, #121 ), #206 ) ;
#157 = AXIS2_PLACEMENT_3D ( 'NONE', #268, #9, #248 ) ;
#158 = DIRECTION ( 'NONE',  ( 1.000000000000000000, 0.000000000000000000, 0.000000000000000000 ) ) ;
#159 = CIRCLE ( 'NONE', #230, 0.1999999999999999833 ) ;
#160 = ORIENTED_EDGE ( 'NONE', *, *, #161, .T. ) ;
#161 = EDGE_CURVE ( 'NONE', #110, #280, #180, .T. ) ;
#162 =( NAMED_UNIT ( * ) SI_UNIT ( $, .STERADIAN. ) SOLID_ANGLE_UNIT ( ) );
#163 = ORIENTED_EDGE ( 'NONE', *, *, #11, .T. ) ;
#164 = VERTEX_POINT ( 'NONE', #23 ) ;
#165 = CC_DESIGN_PERSON_AND_ORGANIZATION_ASSIGNMENT ( #264, #53, ( #284 ) ) ;
#166 = AXIS2_PLACEMENT_3D ( 'NONE', #282, #251, #20 ) ;
#167 = LINE ( 'NONE', #31, #200 ) ;
#168 = CARTESIAN_POINT ( 'NONE',  ( 0.000000000000000000, 0.000000000000000000, 1.199999999999999956 ) ) ;
#169 = MECHANICAL_CONTEXT ( 'NONE', #139, 'mechanical' ) ;
#170 = AXIS2_PLACEMENT_3D ( 'NONE', #305, #224, #107 ) ;
#171 = EDGE_CURVE ( 'NONE', #280, #164, #237, .T. ) ;
#172 = CARTESIAN_POINT ( 'NONE',  ( 1.250000000000000000, 1.530808498934191571E-16, 0.000000000000000000 ) ) ;
#173 = CALENDAR_DATE ( 2022, 20, 6 ) ;
#174 = EDGE_CURVE ( 'NONE', #110, #108, #22, .T. ) ;
#175 = DIRECTION ( 'NONE',  ( 0.000000000000000000, 0.000000000000000000, 1.000000000000000000 ) ) ;
#176 = EDGE_CURVE ( 'NONE', #280, #259, #299, .T. ) ;
#177 = CIRCLE ( 'NONE', #46, 1.250000000000000000 ) ;
#178 = CARTESIAN_POINT ( 'NONE',  ( 0.000000000000000000, 0.000000000000000000, 1.199999999999999956 ) ) ;
#179 = CALENDAR_DATE ( 2022, 20, 6 ) ;
#180 = LINE ( 'NONE', #131, #65 ) ;
#181 = CC_DESIGN_APPROVAL ( #191, ( #59 ) ) ;
#182 = CARTESIAN_POINT ( 'NONE',  ( -1.250000000000000000, 0.000000000000000000, 1.199999999999999956 ) ) ;
#183 = DIRECTION ( 'NONE',  ( -1.000000000000000000, 0.000000000000000000, 0.000000000000000000 ) ) ;
#184 = ORIENTED_EDGE ( 'NONE', *, *, #85, .T. ) ;
#185 = CARTESIAN_POINT ( 'NONE',  ( 0.000000000000000000, 0.000000000000000000, 101.2000000000000171 ) ) ;
#186 = EDGE_CURVE ( 'NONE', #259, #30, #159, .T. ) ;
#187 = EDGE_LOOP ( 'NONE', ( #163, #91 ) ) ;
#188 = APPLICATION_CONTEXT ( 'configuration controlled 3d designs of mechanical parts and assemblies' ) ;
#189 = ORIENTED_EDGE ( 'NONE', *, *, #225, .F. ) ;
#190 = APPLICATION_PROTOCOL_DEFINITION ( 'international standard', 'config_control_design', 1994, #188 ) ;
#191 = APPROVAL ( #241, 'NEURÈENÝ' ) ;
#192 = ORIENTED_EDGE ( 'NONE', *, *, #11, .F. ) ;
#193 = APPROVAL_DATE_TIME ( #216, #229 ) ;
#194 = TOROIDAL_SURFACE ( 'NONE', #166, 0.6999999999999999556, 0.2000000000000000111 ) ;
#195 = DIRECTION ( 'NONE',  ( 1.000000000000000000, 0.000000000000000000, 0.000000000000000000 ) ) ;
#196 = CC_DESIGN_PERSON_AND_ORGANIZATION_ASSIGNMENT ( #14, #10, ( #59 ) ) ;
#197 = CC_DESIGN_APPROVAL ( #116, ( #135 ) ) ;
#198 = DIRECTION ( 'NONE',  ( 1.000000000000000000, 0.000000000000000000, 0.000000000000000000 ) ) ;
#199 = PERSON_AND_ORGANIZATION_ROLE ( 'design_supplier' ) ;
#200 = VECTOR ( 'NONE', #60, 1000.000000000000000 ) ;
#201 = DIRECTION ( 'NONE',  ( -0.000000000000000000, -0.000000000000000000, -1.000000000000000000 ) ) ;
#202 = LOCAL_TIME ( 12, 29, 9.000000000000000000, #273 ) ;
#203 = CYLINDRICAL_SURFACE ( 'NONE', #272, 1.250000000000000000 ) ;
#204 = CARTESIAN_POINT ( 'NONE',  ( 0.000000000000000000, 0.000000000000000000, 1.199999999999999956 ) ) ;
#205 = AXIS2_PLACEMENT_3D ( 'NONE', #168, #246, #55 ) ;
#206 =( GEOMETRIC_REPRESENTATION_CONTEXT ( 3 ) GLOBAL_UNCERTAINTY_ASSIGNED_CONTEXT ( ( #212 ) ) GLOBAL_UNIT_ASSIGNED_CONTEXT ( ( #266, #27, #162 ) ) REPRESENTATION_CONTEXT ( 'NONE', 'WORKASPACE' ) );
#207 = DIRECTION ( 'NONE',  ( -0.000000000000000000, -0.000000000000000000, -1.000000000000000000 ) ) ;
#208 = ADVANCED_FACE ( 'NONE', ( #151 ), #194, .F. ) ;
#209 = DIRECTION ( 'NONE',  ( 0.000000000000000000, 0.000000000000000000, 1.000000000000000000 ) ) ;
#210 = ORIENTED_EDGE ( 'NONE', *, *, #292, .F. ) ;
#211 = COORDINATED_UNIVERSAL_TIME_OFFSET ( 1, 0, .AHEAD. ) ;
#212 = UNCERTAINTY_MEASURE_WITH_UNIT (LENGTH_MEASURE( 1.000000000000000082E-05 ), #266, 'distance_accuracy_value', 'NONE');
#213 = ORIENTED_EDGE ( 'NONE', *, *, #186, .F. ) ;
#214 = LOCAL_TIME ( 12, 29, 9.000000000000000000, #234 ) ;
#215 = EDGE_LOOP ( 'NONE', ( #189, #48, #192, #217 ) ) ;
#216 = DATE_AND_TIME ( #141, #214 ) ;
#217 = ORIENTED_EDGE ( 'NONE', *, *, #171, .F. ) ;
#218 = DIRECTION ( 'NONE',  ( 0.000000000000000000, 0.000000000000000000, 1.000000000000000000 ) ) ;
#219 = CC_DESIGN_PERSON_AND_ORGANIZATION_ASSIGNMENT ( #144, #220, ( #135 ) ) ;
#220 = PERSON_AND_ORGANIZATION_ROLE ( 'creator' ) ;
#221 = ADVANCED_FACE ( 'NONE', ( #153 ), #203, .T. ) ;
#222 = PERSON_AND_ORGANIZATION ( #40, #90 ) ;
#223 = CARTESIAN_POINT ( 'NONE',  ( 0.000000000000000000, 0.000000000000000000, 101.2000000000000171 ) ) ;
#224 = DIRECTION ( 'NONE',  ( 0.000000000000000000, 0.000000000000000000, 1.000000000000000000 ) ) ;
#225 = EDGE_CURVE ( 'NONE', #259, #280, #8, .T. ) ;
#226 = DIRECTION ( 'NONE',  ( 0.000000000000000000, 0.000000000000000000, 1.000000000000000000 ) ) ;
#227 = DIRECTION ( 'NONE',  ( -0.000000000000000000, -0.000000000000000000, -1.000000000000000000 ) ) ;
#228 = ORIENTED_EDGE ( 'NONE', *, *, #176, .T. ) ;
#229 = APPROVAL ( #32, 'NEURÈENÝ' ) ;
#230 = AXIS2_PLACEMENT_3D ( 'NONE', #125, #231, #303 ) ;
#231 = DIRECTION ( 'NONE',  ( 1.224646799147353207E-16, 1.000000000000000000, -0.000000000000000000 ) ) ;
#232 = ORIENTED_EDGE ( 'NONE', *, *, #250, .T. ) ;
#233 = ORIENTED_EDGE ( 'NONE', *, *, #85, .F. ) ;
#234 = COORDINATED_UNIVERSAL_TIME_OFFSET ( 1, 0, .AHEAD. ) ;
#235 = DIRECTION ( 'NONE',  ( 1.000000000000000000, 0.000000000000000000, 0.000000000000000000 ) ) ;
#236 = DIRECTION ( 'NONE',  ( 1.000000000000000000, 0.000000000000000000, 0.000000000000000000 ) ) ;
#237 = CIRCLE ( 'NONE', #12, 0.2000000000000000944 ) ;
#238 = CC_DESIGN_DATE_AND_TIME_ASSIGNMENT ( #295, #296, ( #111 ) ) ;
#239 = PERSON_AND_ORGANIZATION ( #40, #90 ) ;
#240 = LOCAL_TIME ( 12, 29, 9.000000000000000000, #66 ) ;
#241 = APPROVAL_STATUS ( 'not_yet_approved' ) ;
#242 = EDGE_CURVE ( 'NONE', #47, #69, #129, .T. ) ;
#243 = AXIS2_PLACEMENT_3D ( 'NONE', #122, #293, #198 ) ;
#244 = APPROVAL_ROLE ( '' ) ;
#245 = AXIS2_PLACEMENT_3D ( 'NONE', #223, #218, #289 ) ;
#246 = DIRECTION ( 'NONE',  ( 0.000000000000000000, 0.000000000000000000, 1.000000000000000000 ) ) ;
#247 = VECTOR ( 'NONE', #301, 1000.000000000000000 ) ;
#248 = DIRECTION ( 'NONE',  ( -1.000000000000000000, 0.000000000000000000, 0.000000000000000000 ) ) ;
#249 = DIRECTION ( 'NONE',  ( -0.000000000000000000, -0.000000000000000000, -1.000000000000000000 ) ) ;
#250 = EDGE_CURVE ( 'NONE', #69, #47, #152, .T. ) ;
#251 = DIRECTION ( 'NONE',  ( 0.000000000000000000, 0.000000000000000000, 1.000000000000000000 ) ) ;
#252 = DIRECTION ( 'NONE',  ( 1.000000000000000000, 0.000000000000000000, 0.000000000000000000 ) ) ;
#253 = DIRECTION ( 'NONE',  ( 1.000000000000000000, 0.000000000000000000, 0.000000000000000000 ) ) ;
#254 = DIRECTION ( 'NONE',  ( -1.000000000000000000, 0.000000000000000000, 0.000000000000000000 ) ) ;
#255 = ORIENTED_EDGE ( 'NONE', *, *, #63, .F. ) ;
#256 = LOCAL_TIME ( 12, 29, 9.000000000000000000, #297 ) ;
#257 = CARTESIAN_POINT ( 'NONE',  ( 0.5000000000000000000, 6.123233995736766036E-17, 1.399999999999998579 ) ) ;
#258 = EDGE_LOOP ( 'NONE', ( #213, #283, #26, #210 ) ) ;
#259 = VERTEX_POINT ( 'NONE', #67 ) ;
#260 = ORIENTED_EDGE ( 'NONE', *, *, #242, .F. ) ;
#261 = AXIS2_PLACEMENT_3D ( 'NONE', #52, #138, #235 ) ;
#262 = AXIS2_PLACEMENT_3D ( 'NONE', #25, #83, #307 ) ;
#263 = DIRECTION ( 'NONE',  ( 0.000000000000000000, 0.000000000000000000, 1.000000000000000000 ) ) ;
#264 = PERSON_AND_ORGANIZATION ( #40, #90 ) ;
#265 = CARTESIAN_POINT ( 'NONE',  ( 1.250000000000000000, 1.530808498934191571E-16, 1.199999999999999956 ) ) ;
#266 =( LENGTH_UNIT ( ) NAMED_UNIT ( * ) SI_UNIT ( .MILLI., .METRE. ) );
#267 = SECURITY_CLASSIFICATION_LEVEL ( 'unclassified' ) ;
#268 = CARTESIAN_POINT ( 'NONE',  ( 0.000000000000000000, 0.000000000000000000, 101.2000000000000171 ) ) ;
#269 = DATE_AND_TIME ( #173, #256 ) ;
#270 = AXIS2_PLACEMENT_3D ( 'NONE', #37, #175, #195 ) ;
#271 = CARTESIAN_POINT ( 'NONE',  ( 0.000000000000000000, 0.000000000000000000, 0.000000000000000000 ) ) ;
#272 = AXIS2_PLACEMENT_3D ( 'NONE', #42, #154, #254 ) ;
#273 = COORDINATED_UNIVERSAL_TIME_OFFSET ( 1, 0, .AHEAD. ) ;
#274 = FACE_OUTER_BOUND ( 'NONE', #132, .T. ) ;
#275 = EDGE_CURVE ( 'NONE', #87, #130, #177, .T. ) ;
#276 = CARTESIAN_POINT ( 'NONE',  ( 0.000000000000000000, 0.000000000000000000, 101.2000000000000171 ) ) ;
#277 = DIRECTION ( 'NONE',  ( -0.000000000000000000, -0.000000000000000000, -1.000000000000000000 ) ) ;
#278 = DIRECTION ( 'NONE',  ( 0.000000000000000000, 0.000000000000000000, -1.000000000000000000 ) ) ;
#279 = CARTESIAN_POINT ( 'NONE',  ( 0.6999999999999999556, 0.000000000000000000, 1.399999999999998579 ) ) ;
#280 = VERTEX_POINT ( 'NONE', #257 ) ;
#281 = DATE_AND_TIME ( #179, #240 ) ;
#282 = CARTESIAN_POINT ( 'NONE',  ( 0.000000000000000000, 0.000000000000000000, 1.399999999999998579 ) ) ;
#283 = ORIENTED_EDGE ( 'NONE', *, *, #176, .F. ) ;
#284 = PRODUCT ( 'af12', 'af12', '', ( #169 ) ) ;
#285 = CC_DESIGN_APPROVAL ( #229, ( #111 ) ) ;
#286 = DESIGN_CONTEXT ( 'detailed design', #188, 'design' ) ;
#287 = ORIENTED_EDGE ( 'NONE', *, *, #63, .T. ) ;
#288 = EDGE_CURVE ( 'NONE', #130, #69, #62, .T. ) ;
#289 = DIRECTION ( 'NONE',  ( 1.000000000000000000, 0.000000000000000000, -0.000000000000000000 ) ) ;
#290 = CIRCLE ( 'NONE', #82, 0.6999999999999999556 ) ;
#291 = DIRECTION ( 'NONE',  ( 1.000000000000000000, 0.000000000000000000, 0.000000000000000000 ) ) ;
#292 = EDGE_CURVE ( 'NONE', #30, #164, #43, .T. ) ;
#293 = DIRECTION ( 'NONE',  ( 0.000000000000000000, 0.000000000000000000, 1.000000000000000000 ) ) ;
#294 = CARTESIAN_POINT ( 'NONE',  ( -1.250000000000000000, 0.000000000000000000, 0.000000000000000000 ) ) ;
#295 = DATE_AND_TIME ( #89, #34 ) ;
#296 = DATE_TIME_ROLE ( 'creation_date' ) ;
#297 = COORDINATED_UNIVERSAL_TIME_OFFSET ( 1, 0, .AHEAD. ) ;
#298 = PLANE ( 'NONE',  #245 ) ;
#299 = CIRCLE ( 'NONE', #94, 0.5000000000000000000 ) ;
#300 = DIRECTION ( 'NONE',  ( 1.000000000000000000, 0.000000000000000000, 0.000000000000000000 ) ) ;
#301 = DIRECTION ( 'NONE',  ( -0.000000000000000000, -0.000000000000000000, -1.000000000000000000 ) ) ;
#302 = ADVANCED_FACE ( 'NONE', ( #81 ), #86, .T. ) ;
#303 = DIRECTION ( 'NONE',  ( -1.000000000000000000, 1.224646799147352714E-16, 0.000000000000000000 ) ) ;
#304 = AXIS2_PLACEMENT_3D ( 'NONE', #185, #58, #252 ) ;
#305 = CARTESIAN_POINT ( 'NONE',  ( 0.000000000000000000, 0.000000000000000000, 1.399999999999998579 ) ) ;
#306 = ORIENTED_EDGE ( 'NONE', *, *, #225, .T. ) ;
#307 = DIRECTION ( 'NONE',  ( 1.000000000000000000, 0.000000000000000000, 0.000000000000000000 ) ) ;
ENDSEC;
END-ISO-10303-21;
