ISO-10303-21;
HEADER;
FILE_DESCRIPTION (( 'STEP AP203' ),
    '1' );
FILE_NAME ('b86c.STEP',
    '2022-06-20T09:44:30',
    ( '' ),
    ( '' ),
    'SwSTEP 2.0',
    'SolidWorks 2019',
    '' );
FILE_SCHEMA (( 'CONFIG_CONTROL_DESIGN' ));
ENDSEC;

DATA;
#1 = UNCERTAINTY_MEASURE_WITH_UNIT (LENGTH_MEASURE( 1.000000000000000082E-05 ), #79, 'distance_accuracy_value', 'NONE');
#2 = PRODUCT_DEFINITION_SHAPE ( 'NONE', 'NONE',  #31 ) ;
#3 = ORIENTED_EDGE ( 'NONE', *, *, #155, .F. ) ;
#4 = APPROVAL ( #198, 'NEURÈENÝ' ) ;
#5 = PERSON_AND_ORGANIZATION ( #158, #140 ) ;
#6 = DIRECTION ( 'NONE',  ( 0.000000000000000000, 0.000000000000000000, 1.000000000000000000 ) ) ;
#7 = CARTESIAN_POINT ( 'NONE',  ( 0.000000000000000000, 0.000000000000000000, 5.000000000000000000 ) ) ;
#8 = CIRCLE ( 'NONE', #187, 7.000000000000000000 ) ;
#9 = CIRCLE ( 'NONE', #59, 4.250000000000000000 ) ;
#10 = EDGE_CURVE ( 'NONE', #124, #297, #194, .T. ) ;
#11 = DIRECTION ( 'NONE',  ( 0.000000000000000000, 0.000000000000000000, 1.000000000000000000 ) ) ;
#12 = DIRECTION ( 'NONE',  ( 1.000000000000000000, 0.000000000000000000, 0.000000000000000000 ) ) ;
#13 = PLANE ( 'NONE',  #174 ) ;
#14 = APPROVAL_ROLE ( '' ) ;
#15 = AXIS2_PLACEMENT_3D ( 'NONE', #266, #145, #12 ) ;
#16 = AXIS2_PLACEMENT_3D ( 'NONE', #189, #44, #232 ) ;
#17 = EDGE_CURVE ( 'NONE', #202, #179, #8, .T. ) ;
#18 = CARTESIAN_POINT ( 'NONE',  ( 0.000000000000000000, 0.000000000000000000, 505.0000000000000000 ) ) ;
#19 = AXIS2_PLACEMENT_3D ( 'NONE', #290, #184, #163 ) ;
#20 = LOCAL_TIME ( 11, 44, 30.00000000000000000, #142 ) ;
#21 = FACE_OUTER_BOUND ( 'NONE', #58, .T. ) ;
#22 = EDGE_LOOP ( 'NONE', ( #61, #199, #136, #195 ) ) ;
#23 = ORIENTED_EDGE ( 'NONE', *, *, #261, .T. ) ;
#24 = EDGE_CURVE ( 'NONE', #97, #70, #75, .T. ) ;
#25 = AXIS2_PLACEMENT_3D ( 'NONE', #161, #230, #138 ) ;
#26 = LOCAL_TIME ( 11, 44, 30.00000000000000000, #35 ) ;
#27 = PERSON_AND_ORGANIZATION ( #158, #140 ) ;
#28 = COORDINATED_UNIVERSAL_TIME_OFFSET ( 1, 0, .AHEAD. ) ;
#29 = FACE_OUTER_BOUND ( 'NONE', #22, .T. ) ;
#30 = MANIFOLD_SOLID_BREP ( 'Zaoblit1', #89 ) ;
#31 = PRODUCT_DEFINITION ( 'NEZNÁMÝ', '', #188, #154 ) ;
#32 = ORIENTED_EDGE ( 'NONE', *, *, #120, .T. ) ;
#33 = DIRECTION ( 'NONE',  ( -1.000000000000000000, 0.000000000000000000, 0.000000000000000000 ) ) ;
#34 = ORIENTED_EDGE ( 'NONE', *, *, #114, .T. ) ;
#35 = COORDINATED_UNIVERSAL_TIME_OFFSET ( 1, 0, .AHEAD. ) ;
#36 = DIRECTION ( 'NONE',  ( 0.000000000000000000, 0.000000000000000000, 1.000000000000000000 ) ) ;
#37 = ADVANCED_FACE ( 'NONE', ( #78, #203 ), #259, .T. ) ;
#38 = CARTESIAN_POINT ( 'NONE',  ( 4.250000000000000000, 5.204748896376250699E-16, 505.0000000000000000 ) ) ;
#39 = DIRECTION ( 'NONE',  ( 0.000000000000000000, 0.000000000000000000, 1.000000000000000000 ) ) ;
#40 = PRODUCT ( 'b86c', 'b86c', '', ( #282 ) ) ;
#41 = DIRECTION ( 'NONE',  ( 0.000000000000000000, 0.000000000000000000, 1.000000000000000000 ) ) ;
#42 = APPROVAL_DATE_TIME ( #118, #71 ) ;
#43 = ADVANCED_FACE ( 'NONE', ( #176 ), #226, .T. ) ;
#44 = DIRECTION ( 'NONE',  ( 1.224646799147353207E-16, 1.000000000000000000, -0.000000000000000000 ) ) ;
#45 = PRODUCT_RELATED_PRODUCT_CATEGORY ( 'detail', '', ( #40 ) ) ;
#46 = DIRECTION ( 'NONE',  ( 0.000000000000000000, 0.000000000000000000, 1.000000000000000000 ) ) ;
#47 = EDGE_LOOP ( 'NONE', ( #262, #60, #66, #193 ) ) ;
#48 = AXIS2_PLACEMENT_3D ( 'NONE', #209, #292, #88 ) ;
#49 = CARTESIAN_POINT ( 'NONE',  ( 4.250000000000000000, 5.204748896376250699E-16, 5.199999999999982414 ) ) ;
#50 = EDGE_LOOP ( 'NONE', ( #240, #54, #285, #108 ) ) ;
#51 = APPROVAL_ROLE ( '' ) ;
#52 = AXIS2_PLACEMENT_3D ( 'NONE', #86, #135, #175 ) ;
#53 = APPROVAL_PERSON_ORGANIZATION ( #258, #4, #51 ) ;
#54 = ORIENTED_EDGE ( 'NONE', *, *, #102, .T. ) ;
#55 = EDGE_CURVE ( 'NONE', #97, #68, #110, .T. ) ;
#56 = CALENDAR_DATE ( 2022, 20, 6 ) ;
#57 = DIRECTION ( 'NONE',  ( -0.000000000000000000, -0.000000000000000000, -1.000000000000000000 ) ) ;
#58 = EDGE_LOOP ( 'NONE', ( #3, #190 ) ) ;
#59 = AXIS2_PLACEMENT_3D ( 'NONE', #272, #62, #216 ) ;
#60 = ORIENTED_EDGE ( 'NONE', *, *, #159, .T. ) ;
#61 = ORIENTED_EDGE ( 'NONE', *, *, #281, .F. ) ;
#62 = DIRECTION ( 'NONE',  ( 0.000000000000000000, 0.000000000000000000, 1.000000000000000000 ) ) ;
#63 = CARTESIAN_POINT ( 'NONE',  ( 7.000000000000000000, 8.572527594031473190E-16, 5.000000000000000000 ) ) ;
#64 = VECTOR ( 'NONE', #235, 1000.000000000000000 ) ;
#65 = ADVANCED_FACE ( 'NONE', ( #182 ), #222, .F. ) ;
#66 = ORIENTED_EDGE ( 'NONE', *, *, #248, .T. ) ;
#67 = CYLINDRICAL_SURFACE ( 'NONE', #25, 4.250000000000000000 ) ;
#68 = VERTEX_POINT ( 'NONE', #239 ) ;
#69 = CARTESIAN_POINT ( 'NONE',  ( 0.000000000000000000, 0.000000000000000000, 5.000000000000000000 ) ) ;
#70 = VERTEX_POINT ( 'NONE', #38 ) ;
#71 = APPROVAL ( #295, 'NEURÈENÝ' ) ;
#72 = APPROVAL_STATUS ( 'not_yet_approved' ) ;
#73 = COORDINATED_UNIVERSAL_TIME_OFFSET ( 1, 0, .AHEAD. ) ;
#74 = DATE_AND_TIME ( #304, #242 ) ;
#75 = CIRCLE ( 'NONE', #81, 4.250000000000000000 ) ;
#76 = EDGE_LOOP ( 'NONE', ( #23, #288 ) ) ;
#77 =( NAMED_UNIT ( * ) SI_UNIT ( $, .STERADIAN. ) SOLID_ANGLE_UNIT ( ) );
#78 = FACE_BOUND ( 'NONE', #273, .T. ) ;
#79 =( LENGTH_UNIT ( ) NAMED_UNIT ( * ) SI_UNIT ( .MILLI., .METRE. ) );
#80 = EDGE_LOOP ( 'NONE', ( #152, #148, #170, #133 ) ) ;
#81 = AXIS2_PLACEMENT_3D ( 'NONE', #157, #6, #244 ) ;
#82 = VERTEX_POINT ( 'NONE', #207 ) ;
#83 = LOCAL_TIME ( 11, 44, 30.00000000000000000, #28 ) ;
#84 = DATE_TIME_ROLE ( 'classification_date' ) ;
#85 = CC_DESIGN_PERSON_AND_ORGANIZATION_ASSIGNMENT ( #5, #291, ( #141 ) ) ;
#86 = CARTESIAN_POINT ( 'NONE',  ( 0.000000000000000000, 0.000000000000000000, 5.000000000000000000 ) ) ;
#87 = DIRECTION ( 'NONE',  ( 0.000000000000000000, 0.000000000000000000, 1.000000000000000000 ) ) ;
#88 = DIRECTION ( 'NONE',  ( 1.000000000000000000, 0.000000000000000000, 0.000000000000000000 ) ) ;
#89 = CLOSED_SHELL ( 'NONE', ( #267, #234, #43, #303, #37, #214, #93, #200, #65 ) ) ;
#90 = CC_DESIGN_PERSON_AND_ORGANIZATION_ASSIGNMENT ( #101, #279, ( #40 ) ) ;
#91 = CIRCLE ( 'NONE', #205, 4.450000000000000178 ) ;
#92 = PERSON_AND_ORGANIZATION_ROLE ( 'creator' ) ;
#93 = ADVANCED_FACE ( 'NONE', ( #29 ), #129, .T. ) ;
#94 = VECTOR ( 'NONE', #289, 1000.000000000000000 ) ;
#95 = CARTESIAN_POINT ( 'NONE',  ( -7.000000000000000000, 0.000000000000000000, 0.000000000000000000 ) ) ;
#96 = PLANE ( 'NONE',  #278 ) ;
#97 = VERTEX_POINT ( 'NONE', #253 ) ;
#98 = LINE ( 'NONE', #63, #64 ) ;
#99 = CARTESIAN_POINT ( 'NONE',  ( 0.000000000000000000, 0.000000000000000000, 5.000000000000000000 ) ) ;
#100 = EDGE_LOOP ( 'NONE', ( #277, #109, #146, #122 ) ) ;
#101 = PERSON_AND_ORGANIZATION ( #158, #140 ) ;
#102 = EDGE_CURVE ( 'NONE', #68, #82, #283, .T. ) ;
#103 = PERSON_AND_ORGANIZATION_ROLE ( 'creator' ) ;
#104 = CIRCLE ( 'NONE', #144, 4.250000000000000000 ) ;
#105 = AXIS2_PLACEMENT_3D ( 'NONE', #147, #46, #247 ) ;
#106 = DIRECTION ( 'NONE',  ( -1.000000000000000000, 0.000000000000000000, 0.000000000000000000 ) ) ;
#107 =( NAMED_UNIT ( * ) PLANE_ANGLE_UNIT ( ) SI_UNIT ( $, .RADIAN. ) );
#108 = ORIENTED_EDGE ( 'NONE', *, *, #10, .F. ) ;
#109 = ORIENTED_EDGE ( 'NONE', *, *, #220, .F. ) ;
#110 = LINE ( 'NONE', #256, #94 ) ;
#111 = VECTOR ( 'NONE', #183, 1000.000000000000000 ) ;
#112 = DIRECTION ( 'NONE',  ( 1.000000000000000000, 0.000000000000000000, 0.000000000000000000 ) ) ;
#113 = APPLICATION_CONTEXT ( 'configuration controlled 3d designs of mechanical parts and assemblies' ) ;
#114 = EDGE_CURVE ( 'NONE', #70, #97, #104, .T. ) ;
#115 = FACE_OUTER_BOUND ( 'NONE', #181, .T. ) ;
#116 = CARTESIAN_POINT ( 'NONE',  ( 4.250000000000000000, 5.204748896376250699E-16, 505.0000000000000000 ) ) ;
#117 = CIRCLE ( 'NONE', #185, 7.000000000000000000 ) ;
#118 = DATE_AND_TIME ( #296, #20 ) ;
#119 = CC_DESIGN_APPROVAL ( #71, ( #141 ) ) ;
#120 = EDGE_CURVE ( 'NONE', #82, #297, #210, .T. ) ;
#121 = DIRECTION ( 'NONE',  ( 1.000000000000000000, 0.000000000000000000, -0.000000000000000000 ) ) ;
#122 = ORIENTED_EDGE ( 'NONE', *, *, #120, .F. ) ;
#123 = DIRECTION ( 'NONE',  ( 1.000000000000000000, 0.000000000000000000, 0.000000000000000000 ) ) ;
#124 = VERTEX_POINT ( 'NONE', #49 ) ;
#125 = CC_DESIGN_DATE_AND_TIME_ASSIGNMENT ( #74, #197, ( #31 ) ) ;
#126 = LINE ( 'NONE', #116, #263 ) ;
#127 = VERTEX_POINT ( 'NONE', #165 ) ;
#128 = CC_DESIGN_DATE_AND_TIME_ASSIGNMENT ( #180, #84, ( #141 ) ) ;
#129 = CYLINDRICAL_SURFACE ( 'NONE', #160, 4.250000000000000000 ) ;
#130 = COORDINATED_UNIVERSAL_TIME_OFFSET ( 1, 0, .AHEAD. ) ;
#131 = AXIS2_PLACEMENT_3D ( 'NONE', #99, #238, #33 ) ;
#132 = CC_DESIGN_SECURITY_CLASSIFICATION ( #141, ( #188 ) ) ;
#133 = ORIENTED_EDGE ( 'NONE', *, *, #55, .F. ) ;
#134 = ORIENTED_EDGE ( 'NONE', *, *, #231, .T. ) ;
#135 = DIRECTION ( 'NONE',  ( 0.000000000000000000, 0.000000000000000000, 1.000000000000000000 ) ) ;
#136 = ORIENTED_EDGE ( 'NONE', *, *, #55, .T. ) ;
#137 = LINE ( 'NONE', #276, #111 ) ;
#138 = DIRECTION ( 'NONE',  ( -1.000000000000000000, 0.000000000000000000, 0.000000000000000000 ) ) ;
#139 = EDGE_CURVE ( 'NONE', #68, #124, #168, .T. ) ;
#140 = ORGANIZATION ( 'NEURÈENÝ', 'NEURÈENÝ', '' ) ;
#141 = SECURITY_CLASSIFICATION ( '', '', #224 ) ;
#142 = COORDINATED_UNIVERSAL_TIME_OFFSET ( 1, 0, .AHEAD. ) ;
#143 = DIRECTION ( 'NONE',  ( 1.000000000000000000, 0.000000000000000000, 0.000000000000000000 ) ) ;
#144 = AXIS2_PLACEMENT_3D ( 'NONE', #251, #250, #143 ) ;
#145 = DIRECTION ( 'NONE',  ( -0.000000000000000000, -0.000000000000000000, -1.000000000000000000 ) ) ;
#146 = ORIENTED_EDGE ( 'NONE', *, *, #10, .T. ) ;
#147 = CARTESIAN_POINT ( 'NONE',  ( 0.000000000000000000, 0.000000000000000000, 5.199999999999982414 ) ) ;
#148 = ORIENTED_EDGE ( 'NONE', *, *, #281, .T. ) ;
#149 = DATE_AND_TIME ( #56, #269 ) ;
#150 = APPLICATION_CONTEXT ( 'configuration controlled 3d designs of mechanical parts and assemblies' ) ;
#151 = FACE_OUTER_BOUND ( 'NONE', #299, .T. ) ;
#152 = ORIENTED_EDGE ( 'NONE', *, *, #114, .F. ) ;
#153 = DIRECTION ( 'NONE',  ( 0.000000000000000000, 0.000000000000000000, -1.000000000000000000 ) ) ;
#154 = DESIGN_CONTEXT ( 'detailed design', #113, 'design' ) ;
#155 = EDGE_CURVE ( 'NONE', #217, #127, #117, .T. ) ;
#156 = ORIENTED_EDGE ( 'NONE', *, *, #24, .T. ) ;
#157 = CARTESIAN_POINT ( 'NONE',  ( 0.000000000000000000, 0.000000000000000000, 505.0000000000000000 ) ) ;
#158 = PERSON ( 'NEURÈENÝ', 'NEURÈENÝ', 'NEURÈENÝ', ('NEURÈENÝ'), ('NEURÈENÝ'), ('NEURÈENÝ') ) ;
#159 = EDGE_CURVE ( 'NONE', #202, #127, #98, .T. ) ;
#160 = AXIS2_PLACEMENT_3D ( 'NONE', #221, #306, #106 ) ;
#161 = CARTESIAN_POINT ( 'NONE',  ( 0.000000000000000000, 0.000000000000000000, 505.0000000000000000 ) ) ;
#162 = TOROIDAL_SURFACE ( 'NONE', #19, 4.450000000000000178, 0.2000000000000000111 ) ;
#163 = DIRECTION ( 'NONE',  ( 1.000000000000000000, 0.000000000000000000, 0.000000000000000000 ) ) ;
#164 = EDGE_CURVE ( 'NONE', #297, #82, #91, .T. ) ;
#165 = CARTESIAN_POINT ( 'NONE',  ( 7.000000000000000000, 8.572527594031473190E-16, 0.000000000000000000 ) ) ;
#166 = DIRECTION ( 'NONE',  ( 0.000000000000000000, 0.000000000000000000, 1.000000000000000000 ) ) ;
#167 = SHAPE_DEFINITION_REPRESENTATION ( #2, #271 ) ;
#168 = CIRCLE ( 'NONE', #105, 4.250000000000000000 ) ;
#169 = DIRECTION ( 'NONE',  ( 1.000000000000000000, 0.000000000000000000, 0.000000000000000000 ) ) ;
#170 = ORIENTED_EDGE ( 'NONE', *, *, #220, .T. ) ;
#171 = PERSON_AND_ORGANIZATION ( #158, #140 ) ;
#172 = CC_DESIGN_PERSON_AND_ORGANIZATION_ASSIGNMENT ( #171, #92, ( #188 ) ) ;
#173 = DIRECTION ( 'NONE',  ( 1.000000000000000000, 0.000000000000000000, 0.000000000000000000 ) ) ;
#174 = AXIS2_PLACEMENT_3D ( 'NONE', #18, #87, #121 ) ;
#175 = DIRECTION ( 'NONE',  ( 1.000000000000000000, 0.000000000000000000, -0.000000000000000000 ) ) ;
#176 = FACE_OUTER_BOUND ( 'NONE', #47, .T. ) ;
#177 = CC_DESIGN_PERSON_AND_ORGANIZATION_ASSIGNMENT ( #219, #103, ( #31 ) ) ;
#178 = CARTESIAN_POINT ( 'NONE',  ( 4.450000000000000178, 0.000000000000000000, 4.999999999999991118 ) ) ;
#179 = VERTEX_POINT ( 'NONE', #215 ) ;
#180 = DATE_AND_TIME ( #204, #26 ) ;
#181 = EDGE_LOOP ( 'NONE', ( #156, #34 ) ) ;
#182 = FACE_OUTER_BOUND ( 'NONE', #100, .T. ) ;
#183 = DIRECTION ( 'NONE',  ( -0.000000000000000000, -0.000000000000000000, -1.000000000000000000 ) ) ;
#184 = DIRECTION ( 'NONE',  ( 0.000000000000000000, 0.000000000000000000, 1.000000000000000000 ) ) ;
#185 = AXIS2_PLACEMENT_3D ( 'NONE', #236, #39, #294 ) ;
#186 = PERSON_AND_ORGANIZATION_ROLE ( 'design_supplier' ) ;
#187 = AXIS2_PLACEMENT_3D ( 'NONE', #264, #36, #206 ) ;
#188 = PRODUCT_DEFINITION_FORMATION_WITH_SPECIFIED_SOURCE ( 'LIBOVOLNÝ', '', #40, .NOT_KNOWN. ) ;
#189 = CARTESIAN_POINT ( 'NONE',  ( -4.450000000000000178, 5.449678256205721784E-16, 5.199999999999982414 ) ) ;
#190 = ORIENTED_EDGE ( 'NONE', *, *, #248, .F. ) ;
#191 = DIRECTION ( 'NONE',  ( 1.000000000000000000, 0.000000000000000000, -0.000000000000000000 ) ) ;
#192 = CARTESIAN_POINT ( 'NONE',  ( 0.000000000000000000, 0.000000000000000000, 0.000000000000000000 ) ) ;
#193 = ORIENTED_EDGE ( 'NONE', *, *, #231, .F. ) ;
#194 = CIRCLE ( 'NONE', #301, 0.1999999999999996503 ) ;
#195 = ORIENTED_EDGE ( 'NONE', *, *, #139, .T. ) ;
#196 = CYLINDRICAL_SURFACE ( 'NONE', #131, 7.000000000000000000 ) ;
#197 = DATE_TIME_ROLE ( 'creation_date' ) ;
#198 = APPROVAL_STATUS ( 'not_yet_approved' ) ;
#199 = ORIENTED_EDGE ( 'NONE', *, *, #24, .F. ) ;
#200 = ADVANCED_FACE ( 'NONE', ( #115 ), #13, .T. ) ;
#201 = APPLICATION_PROTOCOL_DEFINITION ( 'international standard', 'config_control_design', 1994, #150 ) ;
#202 = VERTEX_POINT ( 'NONE', #298 ) ;
#203 = FACE_OUTER_BOUND ( 'NONE', #76, .T. ) ;
#204 = CALENDAR_DATE ( 2022, 20, 6 ) ;
#205 = AXIS2_PLACEMENT_3D ( 'NONE', #274, #270, #123 ) ;
#206 = DIRECTION ( 'NONE',  ( 1.000000000000000000, 0.000000000000000000, 0.000000000000000000 ) ) ;
#207 = CARTESIAN_POINT ( 'NONE',  ( -4.450000000000000178, 5.449678256205721784E-16, 4.999999999999991118 ) ) ;
#208 = PERSON_AND_ORGANIZATION ( #158, #140 ) ;
#209 = CARTESIAN_POINT ( 'NONE',  ( 0.000000000000000000, 0.000000000000000000, 0.000000000000000000 ) ) ;
#210 = CIRCLE ( 'NONE', #15, 4.450000000000000178 ) ;
#211 = DIRECTION ( 'NONE',  ( -0.000000000000000000, -0.000000000000000000, -1.000000000000000000 ) ) ;
#212 =( GEOMETRIC_REPRESENTATION_CONTEXT ( 3 ) GLOBAL_UNCERTAINTY_ASSIGNED_CONTEXT ( ( #1 ) ) GLOBAL_UNIT_ASSIGNED_CONTEXT ( ( #79, #107, #77 ) ) REPRESENTATION_CONTEXT ( 'NONE', 'WORKASPACE' ) );
#213 = CC_DESIGN_APPROVAL ( #4, ( #188 ) ) ;
#214 = ADVANCED_FACE ( 'NONE', ( #21 ), #96, .F. ) ;
#215 = CARTESIAN_POINT ( 'NONE',  ( -7.000000000000000000, 0.000000000000000000, 5.000000000000000000 ) ) ;
#216 = DIRECTION ( 'NONE',  ( 1.000000000000000000, 0.000000000000000000, 0.000000000000000000 ) ) ;
#217 = VERTEX_POINT ( 'NONE', #95 ) ;
#218 = APPROVAL_ROLE ( '' ) ;
#219 = PERSON_AND_ORGANIZATION ( #158, #140 ) ;
#220 = EDGE_CURVE ( 'NONE', #124, #68, #9, .T. ) ;
#221 = CARTESIAN_POINT ( 'NONE',  ( 0.000000000000000000, 0.000000000000000000, 505.0000000000000000 ) ) ;
#222 = TOROIDAL_SURFACE ( 'NONE', #255, 4.450000000000000178, 0.2000000000000000111 ) ;
#223 = ORIENTED_EDGE ( 'NONE', *, *, #164, .T. ) ;
#224 = SECURITY_CLASSIFICATION_LEVEL ( 'unclassified' ) ;
#225 = CARTESIAN_POINT ( 'NONE',  ( 4.450000000000000178, 0.000000000000000000, 5.199999999999982414 ) ) ;
#226 = CYLINDRICAL_SURFACE ( 'NONE', #227, 7.000000000000000000 ) ;
#227 = AXIS2_PLACEMENT_3D ( 'NONE', #7, #57, #265 ) ;
#228 = CARTESIAN_POINT ( 'NONE',  ( 0.000000000000000000, 0.000000000000000000, 5.199999999999982414 ) ) ;
#229 = PERSON_AND_ORGANIZATION ( #158, #140 ) ;
#230 = DIRECTION ( 'NONE',  ( -0.000000000000000000, -0.000000000000000000, -1.000000000000000000 ) ) ;
#231 = EDGE_CURVE ( 'NONE', #179, #217, #137, .T. ) ;
#232 = DIRECTION ( 'NONE',  ( -1.000000000000000000, 1.224646799147353454E-16, 0.000000000000000000 ) ) ;
#233 = CC_DESIGN_APPROVAL ( #275, ( #31 ) ) ;
#234 = ADVANCED_FACE ( 'NONE', ( #249 ), #67, .T. ) ;
#235 = DIRECTION ( 'NONE',  ( -0.000000000000000000, -0.000000000000000000, -1.000000000000000000 ) ) ;
#236 = CARTESIAN_POINT ( 'NONE',  ( 0.000000000000000000, 0.000000000000000000, 0.000000000000000000 ) ) ;
#237 = FACE_OUTER_BOUND ( 'NONE', #50, .T. ) ;
#238 = DIRECTION ( 'NONE',  ( -0.000000000000000000, -0.000000000000000000, -1.000000000000000000 ) ) ;
#239 = CARTESIAN_POINT ( 'NONE',  ( -4.250000000000000000, 0.000000000000000000, 5.199999999999982414 ) ) ;
#240 = ORIENTED_EDGE ( 'NONE', *, *, #139, .F. ) ;
#241 = AXIS2_PLACEMENT_3D ( 'NONE', #260, #280, #173 ) ;
#242 = LOCAL_TIME ( 11, 44, 30.00000000000000000, #73 ) ;
#243 = DIRECTION ( 'NONE',  ( 0.000000000000000000, -1.000000000000000000, 0.000000000000000000 ) ) ;
#244 = DIRECTION ( 'NONE',  ( 1.000000000000000000, 0.000000000000000000, 0.000000000000000000 ) ) ;
#245 = ORIENTED_EDGE ( 'NONE', *, *, #155, .T. ) ;
#246 = CIRCLE ( 'NONE', #252, 7.000000000000000000 ) ;
#247 = DIRECTION ( 'NONE',  ( 1.000000000000000000, 0.000000000000000000, 0.000000000000000000 ) ) ;
#248 = EDGE_CURVE ( 'NONE', #127, #217, #268, .T. ) ;
#249 = FACE_OUTER_BOUND ( 'NONE', #80, .T. ) ;
#250 = DIRECTION ( 'NONE',  ( 0.000000000000000000, 0.000000000000000000, 1.000000000000000000 ) ) ;
#251 = CARTESIAN_POINT ( 'NONE',  ( 0.000000000000000000, 0.000000000000000000, 505.0000000000000000 ) ) ;
#252 = AXIS2_PLACEMENT_3D ( 'NONE', #69, #166, #169 ) ;
#253 = CARTESIAN_POINT ( 'NONE',  ( -4.250000000000000000, 0.000000000000000000, 505.0000000000000000 ) ) ;
#254 = DATE_AND_TIME ( #305, #83 ) ;
#255 = AXIS2_PLACEMENT_3D ( 'NONE', #228, #11, #112 ) ;
#256 = CARTESIAN_POINT ( 'NONE',  ( -4.250000000000000000, 0.000000000000000000, 505.0000000000000000 ) ) ;
#257 = CC_DESIGN_PERSON_AND_ORGANIZATION_ASSIGNMENT ( #229, #186, ( #188 ) ) ;
#258 = PERSON_AND_ORGANIZATION ( #158, #140 ) ;
#259 = PLANE ( 'NONE',  #52 ) ;
#260 = CARTESIAN_POINT ( 'NONE',  ( 0.000000000000000000, 0.000000000000000000, 0.000000000000000000 ) ) ;
#261 = EDGE_CURVE ( 'NONE', #179, #202, #246, .T. ) ;
#262 = ORIENTED_EDGE ( 'NONE', *, *, #17, .F. ) ;
#263 = VECTOR ( 'NONE', #211, 1000.000000000000000 ) ;
#264 = CARTESIAN_POINT ( 'NONE',  ( 0.000000000000000000, 0.000000000000000000, 5.000000000000000000 ) ) ;
#265 = DIRECTION ( 'NONE',  ( -1.000000000000000000, 0.000000000000000000, 0.000000000000000000 ) ) ;
#266 = CARTESIAN_POINT ( 'NONE',  ( 0.000000000000000000, 0.000000000000000000, 5.000000000000000000 ) ) ;
#267 = ADVANCED_FACE ( 'NONE', ( #237 ), #162, .F. ) ;
#268 = CIRCLE ( 'NONE', #48, 7.000000000000000000 ) ;
#269 = LOCAL_TIME ( 11, 44, 30.00000000000000000, #130 ) ;
#270 = DIRECTION ( 'NONE',  ( -0.000000000000000000, -0.000000000000000000, -1.000000000000000000 ) ) ;
#271 = ADVANCED_BREP_SHAPE_REPRESENTATION ( 'b86c', ( #30, #241 ), #212 ) ;
#272 = CARTESIAN_POINT ( 'NONE',  ( 0.000000000000000000, 0.000000000000000000, 5.199999999999982414 ) ) ;
#273 = EDGE_LOOP ( 'NONE', ( #223, #32 ) ) ;
#274 = CARTESIAN_POINT ( 'NONE',  ( 0.000000000000000000, 0.000000000000000000, 5.000000000000000000 ) ) ;
#275 = APPROVAL ( #72, 'NEURÈENÝ' ) ;
#276 = CARTESIAN_POINT ( 'NONE',  ( -7.000000000000000000, 0.000000000000000000, 5.000000000000000000 ) ) ;
#277 = ORIENTED_EDGE ( 'NONE', *, *, #102, .F. ) ;
#278 = AXIS2_PLACEMENT_3D ( 'NONE', #192, #41, #191 ) ;
#279 = PERSON_AND_ORGANIZATION_ROLE ( 'design_owner' ) ;
#280 = DIRECTION ( 'NONE',  ( 0.000000000000000000, 0.000000000000000000, 1.000000000000000000 ) ) ;
#281 = EDGE_CURVE ( 'NONE', #70, #124, #126, .T. ) ;
#282 = MECHANICAL_CONTEXT ( 'NONE', #150, 'mechanical' ) ;
#283 = CIRCLE ( 'NONE', #16, 0.1999999999999996503 ) ;
#284 = APPLICATION_PROTOCOL_DEFINITION ( 'international standard', 'config_control_design', 1994, #113 ) ;
#285 = ORIENTED_EDGE ( 'NONE', *, *, #164, .F. ) ;
#286 = APPROVAL_DATE_TIME ( #254, #275 ) ;
#287 = ORIENTED_EDGE ( 'NONE', *, *, #159, .F. ) ;
#288 = ORIENTED_EDGE ( 'NONE', *, *, #17, .T. ) ;
#289 = DIRECTION ( 'NONE',  ( -0.000000000000000000, -0.000000000000000000, -1.000000000000000000 ) ) ;
#290 = CARTESIAN_POINT ( 'NONE',  ( 0.000000000000000000, 0.000000000000000000, 5.199999999999982414 ) ) ;
#291 = PERSON_AND_ORGANIZATION_ROLE ( 'classification_officer' ) ;
#292 = DIRECTION ( 'NONE',  ( 0.000000000000000000, 0.000000000000000000, 1.000000000000000000 ) ) ;
#293 = APPROVAL_PERSON_ORGANIZATION ( #208, #71, #14 ) ;
#294 = DIRECTION ( 'NONE',  ( 1.000000000000000000, 0.000000000000000000, 0.000000000000000000 ) ) ;
#295 = APPROVAL_STATUS ( 'not_yet_approved' ) ;
#296 = CALENDAR_DATE ( 2022, 20, 6 ) ;
#297 = VERTEX_POINT ( 'NONE', #178 ) ;
#298 = CARTESIAN_POINT ( 'NONE',  ( 7.000000000000000000, 8.572527594031473190E-16, 5.000000000000000000 ) ) ;
#299 = EDGE_LOOP ( 'NONE', ( #287, #300, #134, #245 ) ) ;
#300 = ORIENTED_EDGE ( 'NONE', *, *, #261, .F. ) ;
#301 = AXIS2_PLACEMENT_3D ( 'NONE', #225, #243, #153 ) ;
#302 = APPROVAL_PERSON_ORGANIZATION ( #27, #275, #218 ) ;
#303 = ADVANCED_FACE ( 'NONE', ( #151 ), #196, .T. ) ;
#304 = CALENDAR_DATE ( 2022, 20, 6 ) ;
#305 = CALENDAR_DATE ( 2022, 20, 6 ) ;
#306 = DIRECTION ( 'NONE',  ( -0.000000000000000000, -0.000000000000000000, -1.000000000000000000 ) ) ;
#307 = APPROVAL_DATE_TIME ( #149, #4 ) ;
ENDSEC;
END-ISO-10303-21;
