ISO-10303-21;
HEADER;
FILE_DESCRIPTION (( 'STEP AP203' ),
    '1' );
FILE_NAME ('7067.STEP',
    '2022-06-20T10:16:54',
    ( '' ),
    ( '' ),
    'SwSTEP 2.0',
    'SolidWorks 2019',
    '' );
FILE_SCHEMA (( 'CONFIG_CONTROL_DESIGN' ));
ENDSEC;

DATA;
#1 = DIRECTION ( 'NONE',  ( -0.000000000000000000, -0.000000000000000000, -1.000000000000000000 ) ) ;
#2 = PLANE ( 'NONE',  #175 ) ;
#3 = APPROVAL_DATE_TIME ( #219, #55 ) ;
#4 = DIRECTION ( 'NONE',  ( 0.000000000000000000, 0.000000000000000000, 1.000000000000000000 ) ) ;
#5 = AXIS2_PLACEMENT_3D ( 'NONE', #198, #78, #50 ) ;
#6 = CC_DESIGN_APPROVAL ( #182, ( #138 ) ) ;
#7 = CYLINDRICAL_SURFACE ( 'NONE', #188, 1.500000000000000222 ) ;
#8 = DIRECTION ( 'NONE',  ( 1.000000000000000000, 0.000000000000000000, 0.000000000000000000 ) ) ;
#9 = CARTESIAN_POINT ( 'NONE',  ( 1.700000000000000400, 0.000000000000000000, 2.999999999999997335 ) ) ;
#10 = PERSON_AND_ORGANIZATION ( #128, #33 ) ;
#11 = CYLINDRICAL_SURFACE ( 'NONE', #303, 3.000000000000000444 ) ;
#12 = AXIS2_PLACEMENT_3D ( 'NONE', #236, #216, #141 ) ;
#13 = AXIS2_PLACEMENT_3D ( 'NONE', #108, #86, #17 ) ;
#14 = ADVANCED_FACE ( 'NONE', ( #51 ), #165, .T. ) ;
#15 = DIRECTION ( 'NONE',  ( -1.000000000000000000, 0.000000000000000000, 0.000000000000000000 ) ) ;
#16 = CARTESIAN_POINT ( 'NONE',  ( 0.000000000000000000, 0.000000000000000000, 3.000000000000000000 ) ) ;
#17 = DIRECTION ( 'NONE',  ( 1.000000000000000000, 0.000000000000000000, 0.000000000000000000 ) ) ;
#18 = ADVANCED_FACE ( 'NONE', ( #238 ), #110, .F. ) ;
#19 = ORIENTED_EDGE ( 'NONE', *, *, #101, .F. ) ;
#20 = EDGE_LOOP ( 'NONE', ( #211, #281, #259, #74 ) ) ;
#21 = ORIENTED_EDGE ( 'NONE', *, *, #231, .F. ) ;
#22 = ORIENTED_EDGE ( 'NONE', *, *, #189, .T. ) ;
#23 = ORIENTED_EDGE ( 'NONE', *, *, #95, .T. ) ;
#24 = ORIENTED_EDGE ( 'NONE', *, *, #114, .T. ) ;
#25 = CC_DESIGN_DATE_AND_TIME_ASSIGNMENT ( #149, #242, ( #36 ) ) ;
#26 = CARTESIAN_POINT ( 'NONE',  ( 0.000000000000000000, 0.000000000000000000, 0.000000000000000000 ) ) ;
#27 = APPROVAL_ROLE ( '' ) ;
#28 = DIRECTION ( 'NONE',  ( 1.000000000000000000, 0.000000000000000000, 0.000000000000000000 ) ) ;
#29 = CARTESIAN_POINT ( 'NONE',  ( 0.000000000000000000, 0.000000000000000000, 3.199999999999994404 ) ) ;
#30 = APPROVAL_ROLE ( '' ) ;
#31 = VERTEX_POINT ( 'NONE', #123 ) ;
#32 = EDGE_CURVE ( 'NONE', #210, #184, #306, .T. ) ;
#33 = ORGANIZATION ( 'NEURÈENÝ', 'NEURÈENÝ', '' ) ;
#34 = DIRECTION ( 'NONE',  ( -0.000000000000000000, -0.000000000000000000, -1.000000000000000000 ) ) ;
#35 = PERSON_AND_ORGANIZATION ( #128, #33 ) ;
#36 = PRODUCT_DEFINITION ( 'NEZNÁMÝ', '', #264, #162 ) ;
#37 = PRODUCT ( '7067', '7067', '', ( #268 ) ) ;
#38 = CIRCLE ( 'NONE', #254, 1.700000000000000400 ) ;
#39 = DIRECTION ( 'NONE',  ( 0.000000000000000000, 0.000000000000000000, 1.000000000000000000 ) ) ;
#40 = DATE_AND_TIME ( #227, #103 ) ;
#41 = DIRECTION ( 'NONE',  ( 1.224646799147353207E-16, 1.000000000000000000, -0.000000000000000000 ) ) ;
#42 = ADVANCED_FACE ( 'NONE', ( #261 ), #7, .T. ) ;
#43 = ORIENTED_EDGE ( 'NONE', *, *, #95, .F. ) ;
#44 = VECTOR ( 'NONE', #63, 1000.000000000000000 ) ;
#45 = CARTESIAN_POINT ( 'NONE',  ( 0.000000000000000000, 0.000000000000000000, 3.000000000000000000 ) ) ;
#46 = ORIENTED_EDGE ( 'NONE', *, *, #32, .F. ) ;
#47 = ORIENTED_EDGE ( 'NONE', *, *, #88, .F. ) ;
#48 = CIRCLE ( 'NONE', #229, 0.2000000000000000944 ) ;
#49 = ORIENTED_EDGE ( 'NONE', *, *, #208, .T. ) ;
#50 = DIRECTION ( 'NONE',  ( 1.000000000000000000, 0.000000000000000000, 0.000000000000000000 ) ) ;
#51 = FACE_OUTER_BOUND ( 'NONE', #190, .T. ) ;
#52 = AXIS2_PLACEMENT_3D ( 'NONE', #125, #4, #235 ) ;
#53 = CARTESIAN_POINT ( 'NONE',  ( 1.700000000000000400, 0.000000000000000000, 3.199999999999994404 ) ) ;
#54 = LINE ( 'NONE', #293, #96 ) ;
#55 = APPROVAL ( #240, 'NEURÈENÝ' ) ;
#56 = CARTESIAN_POINT ( 'NONE',  ( 0.000000000000000000, 0.000000000000000000, 3.199999999999994404 ) ) ;
#57 = CARTESIAN_POINT ( 'NONE',  ( 0.000000000000000000, 0.000000000000000000, 3.000000000000000000 ) ) ;
#58 = PERSON_AND_ORGANIZATION_ROLE ( 'classification_officer' ) ;
#59 = CIRCLE ( 'NONE', #291, 0.2000000000000000944 ) ;
#60 = DIRECTION ( 'NONE',  ( 0.000000000000000000, 0.000000000000000000, 1.000000000000000000 ) ) ;
#61 = VECTOR ( 'NONE', #178, 1000.000000000000000 ) ;
#62 = DIRECTION ( 'NONE',  ( 0.000000000000000000, 0.000000000000000000, 1.000000000000000000 ) ) ;
#63 = DIRECTION ( 'NONE',  ( -0.000000000000000000, -0.000000000000000000, -1.000000000000000000 ) ) ;
#64 = LOCAL_TIME ( 12, 16, 54.00000000000000000, #122 ) ;
#65 = EDGE_CURVE ( 'NONE', #93, #302, #59, .T. ) ;
#66 = DATE_TIME_ROLE ( 'classification_date' ) ;
#67 = ORIENTED_EDGE ( 'NONE', *, *, #189, .F. ) ;
#68 = AXIS2_PLACEMENT_3D ( 'NONE', #45, #62, #146 ) ;
#69 = ORIENTED_EDGE ( 'NONE', *, *, #101, .T. ) ;
#70 = PRODUCT_RELATED_PRODUCT_CATEGORY ( 'detail', '', ( #37 ) ) ;
#71 = EDGE_LOOP ( 'NONE', ( #161, #46 ) ) ;
#72 = EDGE_LOOP ( 'NONE', ( #67, #109, #139, #43 ) ) ;
#73 = ADVANCED_FACE ( 'NONE', ( #195 ), #106, .T. ) ;
#74 = ORIENTED_EDGE ( 'NONE', *, *, #208, .F. ) ;
#75 = ADVANCED_BREP_SHAPE_REPRESENTATION ( '7067', ( #294, #185 ), #117 ) ;
#76 = APPLICATION_PROTOCOL_DEFINITION ( 'international standard', 'config_control_design', 1994, #269 ) ;
#77 = CARTESIAN_POINT ( 'NONE',  ( 0.000000000000000000, 0.000000000000000000, 3.199999999999994404 ) ) ;
#78 = DIRECTION ( 'NONE',  ( 0.000000000000000000, 0.000000000000000000, 1.000000000000000000 ) ) ;
#79 = DIRECTION ( 'NONE',  ( 0.000000000000000000, 0.000000000000000000, 1.000000000000000000 ) ) ;
#80 = CARTESIAN_POINT ( 'NONE',  ( -3.000000000000000444, 0.000000000000000000, 0.000000000000000000 ) ) ;
#81 = SECURITY_CLASSIFICATION_LEVEL ( 'unclassified' ) ;
#82 = APPROVAL ( #270, 'NEURÈENÝ' ) ;
#83 = DIRECTION ( 'NONE',  ( 0.000000000000000000, 0.000000000000000000, 1.000000000000000000 ) ) ;
#84 = PERSON_AND_ORGANIZATION_ROLE ( 'design_owner' ) ;
#85 = LINE ( 'NONE', #148, #44 ) ;
#86 = DIRECTION ( 'NONE',  ( -0.000000000000000000, -0.000000000000000000, -1.000000000000000000 ) ) ;
#87 = AXIS2_PLACEMENT_3D ( 'NONE', #245, #60, #8 ) ;
#88 = EDGE_CURVE ( 'NONE', #186, #93, #228, .T. ) ;
#89 = DATE_AND_TIME ( #126, #160 ) ;
#90 = ORIENTED_EDGE ( 'NONE', *, *, #156, .F. ) ;
#91 = APPROVAL_DATE_TIME ( #40, #182 ) ;
#92 = EDGE_CURVE ( 'NONE', #184, #210, #168, .T. ) ;
#93 = VERTEX_POINT ( 'NONE', #241 ) ;
#94 = EDGE_LOOP ( 'NONE', ( #304, #23 ) ) ;
#95 = EDGE_CURVE ( 'NONE', #135, #302, #38, .T. ) ;
#96 = VECTOR ( 'NONE', #1, 1000.000000000000000 ) ;
#97 = AXIS2_PLACEMENT_3D ( 'NONE', #56, #179, #172 ) ;
#98 = DIRECTION ( 'NONE',  ( 0.000000000000000000, 0.000000000000000000, 1.000000000000000000 ) ) ;
#99 = CARTESIAN_POINT ( 'NONE',  ( 1.500000000000000222, 1.836970198721030181E-16, 103.0000000000000142 ) ) ;
#100 = DIRECTION ( 'NONE',  ( 1.000000000000000000, 0.000000000000000000, 0.000000000000000000 ) ) ;
#101 = EDGE_CURVE ( 'NONE', #134, #31, #137, .T. ) ;
#102 = AXIS2_PLACEMENT_3D ( 'NONE', #77, #79, #218 ) ;
#103 = LOCAL_TIME ( 12, 16, 54.00000000000000000, #154 ) ;
#104 = CARTESIAN_POINT ( 'NONE',  ( -1.700000000000000400, 2.081899558550500773E-16, 2.999999999999997335 ) ) ;
#105 = PERSON_AND_ORGANIZATION ( #128, #33 ) ;
#106 = PLANE ( 'NONE',  #12 ) ;
#107 = CARTESIAN_POINT ( 'NONE',  ( -1.500000000000000222, 0.000000000000000000, 103.0000000000000142 ) ) ;
#108 = CARTESIAN_POINT ( 'NONE',  ( 0.000000000000000000, 0.000000000000000000, 3.000000000000000000 ) ) ;
#109 = ORIENTED_EDGE ( 'NONE', *, *, #144, .F. ) ;
#110 = TOROIDAL_SURFACE ( 'NONE', #102, 1.700000000000000400, 0.2000000000000000111 ) ;
#111 = APPROVAL_PERSON_ORGANIZATION ( #297, #82, #27 ) ;
#112 = EDGE_LOOP ( 'NONE', ( #136, #90, #206, #286 ) ) ;
#113 = ORIENTED_EDGE ( 'NONE', *, *, #92, .T. ) ;
#114 = EDGE_CURVE ( 'NONE', #134, #93, #54, .T. ) ;
#115 = DIRECTION ( 'NONE',  ( 1.000000000000000000, 0.000000000000000000, 0.000000000000000000 ) ) ;
#116 = AXIS2_PLACEMENT_3D ( 'NONE', #29, #98, #191 ) ;
#117 =( GEOMETRIC_REPRESENTATION_CONTEXT ( 3 ) GLOBAL_UNCERTAINTY_ASSIGNED_CONTEXT ( ( #256 ) ) GLOBAL_UNIT_ASSIGNED_CONTEXT ( ( #272, #153, #203 ) ) REPRESENTATION_CONTEXT ( 'NONE', 'WORKASPACE' ) );
#118 = CARTESIAN_POINT ( 'NONE',  ( 0.000000000000000000, 0.000000000000000000, 3.000000000000000000 ) ) ;
#119 = CC_DESIGN_PERSON_AND_ORGANIZATION_ASSIGNMENT ( #105, #197, ( #264 ) ) ;
#120 = APPROVAL_DATE_TIME ( #289, #82 ) ;
#121 = FACE_OUTER_BOUND ( 'NONE', #71, .T. ) ;
#122 = COORDINATED_UNIVERSAL_TIME_OFFSET ( 1, 0, .AHEAD. ) ;
#123 = CARTESIAN_POINT ( 'NONE',  ( -1.500000000000000222, 0.000000000000000000, 103.0000000000000142 ) ) ;
#124 = CALENDAR_DATE ( 2022, 20, 6 ) ;
#125 = CARTESIAN_POINT ( 'NONE',  ( 0.000000000000000000, 0.000000000000000000, 3.199999999999994404 ) ) ;
#126 = CALENDAR_DATE ( 2022, 20, 6 ) ;
#127 = CARTESIAN_POINT ( 'NONE',  ( -3.000000000000000444, 0.000000000000000000, 3.000000000000000000 ) ) ;
#128 = PERSON ( 'NEURÈENÝ', 'NEURÈENÝ', 'NEURÈENÝ', ('NEURÈENÝ'), ('NEURÈENÝ'), ('NEURÈENÝ') ) ;
#129 = COORDINATED_UNIVERSAL_TIME_OFFSET ( 1, 0, .AHEAD. ) ;
#130 = DIRECTION ( 'NONE',  ( -1.000000000000000000, 0.000000000000000000, 0.000000000000000000 ) ) ;
#131 = CARTESIAN_POINT ( 'NONE',  ( 0.000000000000000000, 0.000000000000000000, 103.0000000000000142 ) ) ;
#132 = DIRECTION ( 'NONE',  ( 1.000000000000000000, 0.000000000000000000, -0.000000000000000000 ) ) ;
#133 = PERSON_AND_ORGANIZATION ( #128, #33 ) ;
#134 = VERTEX_POINT ( 'NONE', #99 ) ;
#135 = VERTEX_POINT ( 'NONE', #104 ) ;
#136 = ORIENTED_EDGE ( 'NONE', *, *, #114, .F. ) ;
#137 = CIRCLE ( 'NONE', #5, 1.500000000000000222 ) ;
#138 = SECURITY_CLASSIFICATION ( '', '', #81 ) ;
#139 = ORIENTED_EDGE ( 'NONE', *, *, #65, .T. ) ;
#140 = CARTESIAN_POINT ( 'NONE',  ( 0.000000000000000000, 0.000000000000000000, 0.000000000000000000 ) ) ;
#141 = DIRECTION ( 'NONE',  ( 1.000000000000000000, 0.000000000000000000, -0.000000000000000000 ) ) ;
#142 = DIRECTION ( 'NONE',  ( 0.000000000000000000, 0.000000000000000000, 1.000000000000000000 ) ) ;
#143 = DIRECTION ( 'NONE',  ( -0.000000000000000000, -0.000000000000000000, -1.000000000000000000 ) ) ;
#144 = EDGE_CURVE ( 'NONE', #93, #186, #174, .T. ) ;
#145 = DIRECTION ( 'NONE',  ( -1.000000000000000000, 0.000000000000000000, 0.000000000000000000 ) ) ;
#146 = DIRECTION ( 'NONE',  ( 1.000000000000000000, 0.000000000000000000, 0.000000000000000000 ) ) ;
#147 = PERSON_AND_ORGANIZATION ( #128, #33 ) ;
#148 = CARTESIAN_POINT ( 'NONE',  ( 3.000000000000000444, 3.673940397442060361E-16, 3.000000000000000000 ) ) ;
#149 = DATE_AND_TIME ( #265, #237 ) ;
#150 = DIRECTION ( 'NONE',  ( -0.000000000000000000, -0.000000000000000000, -1.000000000000000000 ) ) ;
#151 = PLANE ( 'NONE',  #221 ) ;
#152 = CC_DESIGN_APPROVAL ( #55, ( #264 ) ) ;
#153 =( NAMED_UNIT ( * ) PLANE_ANGLE_UNIT ( ) SI_UNIT ( $, .RADIAN. ) );
#154 = COORDINATED_UNIVERSAL_TIME_OFFSET ( 1, 0, .AHEAD. ) ;
#155 = APPROVAL_STATUS ( 'not_yet_approved' ) ;
#156 = EDGE_CURVE ( 'NONE', #31, #134, #295, .T. ) ;
#157 = PRODUCT_DEFINITION_SHAPE ( 'NONE', 'NONE',  #36 ) ;
#158 = FACE_OUTER_BOUND ( 'NONE', #72, .T. ) ;
#159 = ORIENTED_EDGE ( 'NONE', *, *, #144, .T. ) ;
#160 = LOCAL_TIME ( 12, 16, 54.00000000000000000, #247 ) ;
#161 = ORIENTED_EDGE ( 'NONE', *, *, #92, .F. ) ;
#162 = DESIGN_CONTEXT ( 'detailed design', #285, 'design' ) ;
#163 = ORIENTED_EDGE ( 'NONE', *, *, #196, .F. ) ;
#164 = AXIS2_PLACEMENT_3D ( 'NONE', #131, #252, #15 ) ;
#165 = CYLINDRICAL_SURFACE ( 'NONE', #209, 3.000000000000000444 ) ;
#166 = CARTESIAN_POINT ( 'NONE',  ( 0.000000000000000000, 0.000000000000000000, 103.0000000000000142 ) ) ;
#167 = EDGE_LOOP ( 'NONE', ( #47, #22, #263, #255 ) ) ;
#168 = CIRCLE ( 'NONE', #214, 3.000000000000000444 ) ;
#169 = DIRECTION ( 'NONE',  ( 0.000000000000000000, 0.000000000000000000, 1.000000000000000000 ) ) ;
#170 = CARTESIAN_POINT ( 'NONE',  ( -1.500000000000000222, 0.000000000000000000, 3.199999999999994404 ) ) ;
#171 = ADVANCED_FACE ( 'NONE', ( #121 ), #2, .F. ) ;
#172 = DIRECTION ( 'NONE',  ( 1.000000000000000000, 0.000000000000000000, 0.000000000000000000 ) ) ;
#173 = PERSON_AND_ORGANIZATION ( #128, #33 ) ;
#174 = CIRCLE ( 'NONE', #116, 1.500000000000000222 ) ;
#175 = AXIS2_PLACEMENT_3D ( 'NONE', #290, #220, #292 ) ;
#176 = LINE ( 'NONE', #127, #61 ) ;
#177 = CC_DESIGN_PERSON_AND_ORGANIZATION_ASSIGNMENT ( #147, #222, ( #264 ) ) ;
#178 = DIRECTION ( 'NONE',  ( -0.000000000000000000, -0.000000000000000000, -1.000000000000000000 ) ) ;
#179 = DIRECTION ( 'NONE',  ( 0.000000000000000000, 0.000000000000000000, 1.000000000000000000 ) ) ;
#180 = CARTESIAN_POINT ( 'NONE',  ( -1.700000000000000400, 2.081899558550500773E-16, 3.199999999999994404 ) ) ;
#181 = VECTOR ( 'NONE', #34, 1000.000000000000000 ) ;
#182 = APPROVAL ( #155, 'NEURÈENÝ' ) ;
#183 = ORIENTED_EDGE ( 'NONE', *, *, #156, .T. ) ;
#184 = VERTEX_POINT ( 'NONE', #80 ) ;
#185 = AXIS2_PLACEMENT_3D ( 'NONE', #199, #83, #192 ) ;
#186 = VERTEX_POINT ( 'NONE', #170 ) ;
#187 = VERTEX_POINT ( 'NONE', #205 ) ;
#188 = AXIS2_PLACEMENT_3D ( 'NONE', #166, #143, #145 ) ;
#189 = EDGE_CURVE ( 'NONE', #186, #135, #48, .T. ) ;
#190 = EDGE_LOOP ( 'NONE', ( #163, #21, #49, #113 ) ) ;
#191 = DIRECTION ( 'NONE',  ( 1.000000000000000000, 0.000000000000000000, 0.000000000000000000 ) ) ;
#192 = DIRECTION ( 'NONE',  ( 1.000000000000000000, 0.000000000000000000, 0.000000000000000000 ) ) ;
#193 = DIRECTION ( 'NONE',  ( 0.000000000000000000, -1.000000000000000000, 0.000000000000000000 ) ) ;
#194 = PERSON_AND_ORGANIZATION_ROLE ( 'creator' ) ;
#195 = FACE_OUTER_BOUND ( 'NONE', #207, .T. ) ;
#196 = EDGE_CURVE ( 'NONE', #187, #210, #85, .T. ) ;
#197 = PERSON_AND_ORGANIZATION_ROLE ( 'design_supplier' ) ;
#198 = CARTESIAN_POINT ( 'NONE',  ( 0.000000000000000000, 0.000000000000000000, 103.0000000000000142 ) ) ;
#199 = CARTESIAN_POINT ( 'NONE',  ( 0.000000000000000000, 0.000000000000000000, 0.000000000000000000 ) ) ;
#200 = APPLICATION_PROTOCOL_DEFINITION ( 'international standard', 'config_control_design', 1994, #285 ) ;
#201 = FACE_OUTER_BOUND ( 'NONE', #112, .T. ) ;
#202 = DIRECTION ( 'NONE',  ( -1.000000000000000000, 1.224646799147353207E-16, 0.000000000000000000 ) ) ;
#203 =( NAMED_UNIT ( * ) SI_UNIT ( $, .STERADIAN. ) SOLID_ANGLE_UNIT ( ) );
#204 = CC_DESIGN_APPROVAL ( #82, ( #36 ) ) ;
#205 = CARTESIAN_POINT ( 'NONE',  ( 3.000000000000000444, 3.673940397442060361E-16, 3.000000000000000000 ) ) ;
#206 = ORIENTED_EDGE ( 'NONE', *, *, #300, .T. ) ;
#207 = EDGE_LOOP ( 'NONE', ( #183, #69 ) ) ;
#208 = EDGE_CURVE ( 'NONE', #253, #184, #176, .T. ) ;
#209 = AXIS2_PLACEMENT_3D ( 'NONE', #57, #243, #223 ) ;
#210 = VERTEX_POINT ( 'NONE', #271 ) ;
#211 = ORIENTED_EDGE ( 'NONE', *, *, #298, .F. ) ;
#212 = CC_DESIGN_DATE_AND_TIME_ASSIGNMENT ( #89, #66, ( #138 ) ) ;
#213 = DIRECTION ( 'NONE',  ( 0.000000000000000000, 0.000000000000000000, 1.000000000000000000 ) ) ;
#214 = AXIS2_PLACEMENT_3D ( 'NONE', #26, #169, #115 ) ;
#215 = APPROVAL_PERSON_ORGANIZATION ( #133, #182, #225 ) ;
#216 = DIRECTION ( 'NONE',  ( 0.000000000000000000, 0.000000000000000000, 1.000000000000000000 ) ) ;
#217 = PERSON_AND_ORGANIZATION ( #128, #33 ) ;
#218 = DIRECTION ( 'NONE',  ( 1.000000000000000000, 0.000000000000000000, 0.000000000000000000 ) ) ;
#219 = DATE_AND_TIME ( #124, #64 ) ;
#220 = DIRECTION ( 'NONE',  ( 0.000000000000000000, 0.000000000000000000, 1.000000000000000000 ) ) ;
#221 = AXIS2_PLACEMENT_3D ( 'NONE', #251, #39, #132 ) ;
#222 = PERSON_AND_ORGANIZATION_ROLE ( 'creator' ) ;
#223 = DIRECTION ( 'NONE',  ( -1.000000000000000000, 0.000000000000000000, 0.000000000000000000 ) ) ;
#224 = AXIS2_PLACEMENT_3D ( 'NONE', #287, #142, #28 ) ;
#225 = APPROVAL_ROLE ( '' ) ;
#226 = CARTESIAN_POINT ( 'NONE',  ( -3.000000000000000444, 0.000000000000000000, 3.000000000000000000 ) ) ;
#227 = CALENDAR_DATE ( 2022, 20, 6 ) ;
#228 = CIRCLE ( 'NONE', #52, 1.500000000000000222 ) ;
#229 = AXIS2_PLACEMENT_3D ( 'NONE', #180, #41, #202 ) ;
#230 = ORIENTED_EDGE ( 'NONE', *, *, #231, .T. ) ;
#231 = EDGE_CURVE ( 'NONE', #253, #187, #250, .T. ) ;
#232 = EDGE_LOOP ( 'NONE', ( #19, #24, #159, #257 ) ) ;
#233 = TOROIDAL_SURFACE ( 'NONE', #97, 1.700000000000000400, 0.2000000000000000111 ) ;
#234 = ADVANCED_FACE ( 'NONE', ( #299 ), #11, .T. ) ;
#235 = DIRECTION ( 'NONE',  ( 1.000000000000000000, 0.000000000000000000, 0.000000000000000000 ) ) ;
#236 = CARTESIAN_POINT ( 'NONE',  ( 0.000000000000000000, 0.000000000000000000, 103.0000000000000142 ) ) ;
#237 = LOCAL_TIME ( 12, 16, 54.00000000000000000, #244 ) ;
#238 = FACE_OUTER_BOUND ( 'NONE', #167, .T. ) ;
#239 = ADVANCED_FACE ( 'NONE', ( #201 ), #248, .T. ) ;
#240 = APPROVAL_STATUS ( 'not_yet_approved' ) ;
#241 = CARTESIAN_POINT ( 'NONE',  ( 1.500000000000000222, 1.836970198721030181E-16, 3.199999999999994404 ) ) ;
#242 = DATE_TIME_ROLE ( 'creation_date' ) ;
#243 = DIRECTION ( 'NONE',  ( -0.000000000000000000, -0.000000000000000000, -1.000000000000000000 ) ) ;
#244 = COORDINATED_UNIVERSAL_TIME_OFFSET ( 1, 0, .AHEAD. ) ;
#245 = CARTESIAN_POINT ( 'NONE',  ( 0.000000000000000000, 0.000000000000000000, 3.000000000000000000 ) ) ;
#246 = ADVANCED_FACE ( 'NONE', ( #275, #279 ), #151, .T. ) ;
#247 = COORDINATED_UNIVERSAL_TIME_OFFSET ( 1, 0, .AHEAD. ) ;
#248 = CYLINDRICAL_SURFACE ( 'NONE', #164, 1.500000000000000222 ) ;
#249 = CLOSED_SHELL ( 'NONE', ( #18, #42, #234, #14, #246, #171, #239, #73, #288 ) ) ;
#250 = CIRCLE ( 'NONE', #87, 3.000000000000000444 ) ;
#251 = CARTESIAN_POINT ( 'NONE',  ( 0.000000000000000000, 0.000000000000000000, 3.000000000000000000 ) ) ;
#252 = DIRECTION ( 'NONE',  ( -0.000000000000000000, -0.000000000000000000, -1.000000000000000000 ) ) ;
#253 = VERTEX_POINT ( 'NONE', #226 ) ;
#254 = AXIS2_PLACEMENT_3D ( 'NONE', #118, #266, #307 ) ;
#255 = ORIENTED_EDGE ( 'NONE', *, *, #65, .F. ) ;
#256 = UNCERTAINTY_MEASURE_WITH_UNIT (LENGTH_MEASURE( 1.000000000000000082E-05 ), #272, 'distance_accuracy_value', 'NONE');
#257 = ORIENTED_EDGE ( 'NONE', *, *, #300, .F. ) ;
#258 = APPROVAL_PERSON_ORGANIZATION ( #35, #55, #30 ) ;
#259 = ORIENTED_EDGE ( 'NONE', *, *, #32, .T. ) ;
#260 = CIRCLE ( 'NONE', #68, 3.000000000000000444 ) ;
#261 = FACE_OUTER_BOUND ( 'NONE', #232, .T. ) ;
#262 = DIRECTION ( 'NONE',  ( 0.000000000000000000, 0.000000000000000000, -1.000000000000000000 ) ) ;
#263 = ORIENTED_EDGE ( 'NONE', *, *, #276, .F. ) ;
#264 = PRODUCT_DEFINITION_FORMATION_WITH_SPECIFIED_SOURCE ( 'LIBOVOLNÝ', '', #37, .NOT_KNOWN. ) ;
#265 = CALENDAR_DATE ( 2022, 20, 6 ) ;
#266 = DIRECTION ( 'NONE',  ( -0.000000000000000000, -0.000000000000000000, -1.000000000000000000 ) ) ;
#267 = CC_DESIGN_PERSON_AND_ORGANIZATION_ASSIGNMENT ( #217, #194, ( #36 ) ) ;
#268 = MECHANICAL_CONTEXT ( 'NONE', #269, 'mechanical' ) ;
#269 = APPLICATION_CONTEXT ( 'configuration controlled 3d designs of mechanical parts and assemblies' ) ;
#270 = APPROVAL_STATUS ( 'not_yet_approved' ) ;
#271 = CARTESIAN_POINT ( 'NONE',  ( 3.000000000000000444, 3.673940397442060361E-16, 0.000000000000000000 ) ) ;
#272 =( LENGTH_UNIT ( ) NAMED_UNIT ( * ) SI_UNIT ( .MILLI., .METRE. ) );
#273 = CALENDAR_DATE ( 2022, 20, 6 ) ;
#274 = LINE ( 'NONE', #107, #181 ) ;
#275 = FACE_BOUND ( 'NONE', #94, .T. ) ;
#276 = EDGE_CURVE ( 'NONE', #302, #135, #284, .T. ) ;
#277 = AXIS2_PLACEMENT_3D ( 'NONE', #140, #213, #100 ) ;
#278 = CC_DESIGN_SECURITY_CLASSIFICATION ( #138, ( #264 ) ) ;
#279 = FACE_OUTER_BOUND ( 'NONE', #283, .T. ) ;
#280 = CC_DESIGN_PERSON_AND_ORGANIZATION_ASSIGNMENT ( #10, #84, ( #37 ) ) ;
#281 = ORIENTED_EDGE ( 'NONE', *, *, #196, .T. ) ;
#282 = ORIENTED_EDGE ( 'NONE', *, *, #298, .T. ) ;
#283 = EDGE_LOOP ( 'NONE', ( #230, #282 ) ) ;
#284 = CIRCLE ( 'NONE', #13, 1.700000000000000400 ) ;
#285 = APPLICATION_CONTEXT ( 'configuration controlled 3d designs of mechanical parts and assemblies' ) ;
#286 = ORIENTED_EDGE ( 'NONE', *, *, #88, .T. ) ;
#287 = CARTESIAN_POINT ( 'NONE',  ( 0.000000000000000000, 0.000000000000000000, 103.0000000000000142 ) ) ;
#288 = ADVANCED_FACE ( 'NONE', ( #158 ), #233, .F. ) ;
#289 = DATE_AND_TIME ( #273, #296 ) ;
#290 = CARTESIAN_POINT ( 'NONE',  ( 0.000000000000000000, 0.000000000000000000, 0.000000000000000000 ) ) ;
#291 = AXIS2_PLACEMENT_3D ( 'NONE', #53, #193, #262 ) ;
#292 = DIRECTION ( 'NONE',  ( 1.000000000000000000, 0.000000000000000000, -0.000000000000000000 ) ) ;
#293 = CARTESIAN_POINT ( 'NONE',  ( 1.500000000000000222, 1.836970198721030181E-16, 103.0000000000000142 ) ) ;
#294 = MANIFOLD_SOLID_BREP ( 'Zaoblit1', #249 ) ;
#295 = CIRCLE ( 'NONE', #224, 1.500000000000000222 ) ;
#296 = LOCAL_TIME ( 12, 16, 54.00000000000000000, #129 ) ;
#297 = PERSON_AND_ORGANIZATION ( #128, #33 ) ;
#298 = EDGE_CURVE ( 'NONE', #187, #253, #260, .T. ) ;
#299 = FACE_OUTER_BOUND ( 'NONE', #20, .T. ) ;
#300 = EDGE_CURVE ( 'NONE', #31, #186, #274, .T. ) ;
#301 = SHAPE_DEFINITION_REPRESENTATION ( #157, #75 ) ;
#302 = VERTEX_POINT ( 'NONE', #9 ) ;
#303 = AXIS2_PLACEMENT_3D ( 'NONE', #16, #150, #130 ) ;
#304 = ORIENTED_EDGE ( 'NONE', *, *, #276, .T. ) ;
#305 = CC_DESIGN_PERSON_AND_ORGANIZATION_ASSIGNMENT ( #173, #58, ( #138 ) ) ;
#306 = CIRCLE ( 'NONE', #277, 3.000000000000000444 ) ;
#307 = DIRECTION ( 'NONE',  ( 1.000000000000000000, 0.000000000000000000, 0.000000000000000000 ) ) ;
ENDSEC;
END-ISO-10303-21;
