ISO-10303-21;
HEADER;
FILE_DESCRIPTION (( 'STEP AP203' ),
    '1' );
FILE_NAME ('db18.STEP',
    '2022-06-20T09:53:53',
    ( '' ),
    ( '' ),
    'SwSTEP 2.0',
    'SolidWorks 2019',
    '' );
FILE_SCHEMA (( 'CONFIG_CONTROL_DESIGN' ));
ENDSEC;

DATA;
#1 = AXIS2_PLACEMENT_3D ( 'NONE', #303, #135, #278 ) ;
#2 = DIRECTION ( 'NONE',  ( 1.000000000000000000, 0.000000000000000000, 0.000000000000000000 ) ) ;
#3 = PERSON_AND_ORGANIZATION_ROLE ( 'creator' ) ;
#4 = DATE_AND_TIME ( #5, #242 ) ;
#5 = CALENDAR_DATE ( 2022, 20, 6 ) ;
#6 = VERTEX_POINT ( 'NONE', #241 ) ;
#7 = CIRCLE ( 'NONE', #247, 3.250000000000000444 ) ;
#8 = DATE_TIME_ROLE ( 'creation_date' ) ;
#9 = PRODUCT_DEFINITION ( 'NEZNÁMÝ', '', #239, #167 ) ;
#10 = ORIENTED_EDGE ( 'NONE', *, *, #153, .F. ) ;
#11 = CARTESIAN_POINT ( 'NONE',  ( 0.000000000000000000, 0.000000000000000000, 5.000000000000000000 ) ) ;
#12 = CIRCLE ( 'NONE', #218, 6.000000000000000888 ) ;
#13 = APPLICATION_CONTEXT ( 'configuration controlled 3d designs of mechanical parts and assemblies' ) ;
#14 = ADVANCED_FACE ( 'NONE', ( #35 ), #86, .F. ) ;
#15 = EDGE_LOOP ( 'NONE', ( #296, #272 ) ) ;
#16 = ORIENTED_EDGE ( 'NONE', *, *, #260, .F. ) ;
#17 = FACE_OUTER_BOUND ( 'NONE', #102, .T. ) ;
#18 = CIRCLE ( 'NONE', #180, 3.450000000000000178 ) ;
#19 = ORIENTED_EDGE ( 'NONE', *, *, #207, .T. ) ;
#20 = APPROVAL ( #143, 'NEURÈENÝ' ) ;
#21 = DIRECTION ( 'NONE',  ( -0.000000000000000000, -0.000000000000000000, -1.000000000000000000 ) ) ;
#22 = LINE ( 'NONE', #301, #173 ) ;
#23 = LOCAL_TIME ( 11, 53, 53.00000000000000000, #72 ) ;
#24 = CARTESIAN_POINT ( 'NONE',  ( 3.250000000000000444, 3.980102097228898231E-16, 635.0000000000000000 ) ) ;
#25 = DIRECTION ( 'NONE',  ( 0.000000000000000000, 0.000000000000000000, 1.000000000000000000 ) ) ;
#26 = COORDINATED_UNIVERSAL_TIME_OFFSET ( 1, 0, .AHEAD. ) ;
#27 = CC_DESIGN_APPROVAL ( #204, ( #9 ) ) ;
#28 = APPROVAL_DATE_TIME ( #215, #204 ) ;
#29 = VERTEX_POINT ( 'NONE', #240 ) ;
#30 = ORIENTED_EDGE ( 'NONE', *, *, #71, .T. ) ;
#31 = PERSON_AND_ORGANIZATION ( #123, #193 ) ;
#32 = VERTEX_POINT ( 'NONE', #223 ) ;
#33 = AXIS2_PLACEMENT_3D ( 'NONE', #52, #100, #78 ) ;
#34 = DIRECTION ( 'NONE',  ( 0.000000000000000000, 0.000000000000000000, 1.000000000000000000 ) ) ;
#35 = FACE_OUTER_BOUND ( 'NONE', #128, .T. ) ;
#36 = CYLINDRICAL_SURFACE ( 'NONE', #148, 3.250000000000000444 ) ;
#37 = ADVANCED_FACE ( 'NONE', ( #268, #130 ), #155, .T. ) ;
#38 = PLANE ( 'NONE',  #149 ) ;
#39 = CC_DESIGN_PERSON_AND_ORGANIZATION_ASSIGNMENT ( #174, #97, ( #51 ) ) ;
#40 = DIRECTION ( 'NONE',  ( 0.000000000000000000, 0.000000000000000000, 1.000000000000000000 ) ) ;
#41 = DIRECTION ( 'NONE',  ( -1.000000000000000000, 0.000000000000000000, 0.000000000000000000 ) ) ;
#42 = VECTOR ( 'NONE', #64, 1000.000000000000000 ) ;
#43 = DIRECTION ( 'NONE',  ( 1.000000000000000000, 0.000000000000000000, 0.000000000000000000 ) ) ;
#44 = LINE ( 'NONE', #210, #202 ) ;
#45 = AXIS2_PLACEMENT_3D ( 'NONE', #152, #270, #185 ) ;
#46 = CALENDAR_DATE ( 2022, 20, 6 ) ;
#47 = APPROVAL_ROLE ( '' ) ;
#48 = ORIENTED_EDGE ( 'NONE', *, *, #159, .T. ) ;
#49 = CALENDAR_DATE ( 2022, 20, 6 ) ;
#50 = DIRECTION ( 'NONE',  ( 0.000000000000000000, 0.000000000000000000, 1.000000000000000000 ) ) ;
#51 = SECURITY_CLASSIFICATION ( '', '', #287 ) ;
#52 = CARTESIAN_POINT ( 'NONE',  ( 0.000000000000000000, 0.000000000000000000, 5.000000000000000000 ) ) ;
#53 = DIRECTION ( 'NONE',  ( -0.000000000000000000, -0.000000000000000000, -1.000000000000000000 ) ) ;
#54 = ORIENTED_EDGE ( 'NONE', *, *, #66, .T. ) ;
#55 = VECTOR ( 'NONE', #255, 1000.000000000000000 ) ;
#56 = VERTEX_POINT ( 'NONE', #183 ) ;
#57 = CC_DESIGN_PERSON_AND_ORGANIZATION_ASSIGNMENT ( #196, #257, ( #224 ) ) ;
#58 = DIRECTION ( 'NONE',  ( 1.000000000000000000, 0.000000000000000000, -0.000000000000000000 ) ) ;
#59 = CC_DESIGN_PERSON_AND_ORGANIZATION_ASSIGNMENT ( #31, #67, ( #239 ) ) ;
#60 = CARTESIAN_POINT ( 'NONE',  ( 0.000000000000000000, 0.000000000000000000, 5.199999999999982414 ) ) ;
#61 = AXIS2_PLACEMENT_3D ( 'NONE', #254, #192, #189 ) ;
#62 = CARTESIAN_POINT ( 'NONE',  ( 3.250000000000000444, 3.980102097228898231E-16, 5.199999999999982414 ) ) ;
#63 = DIRECTION ( 'NONE',  ( -0.000000000000000000, -0.000000000000000000, -1.000000000000000000 ) ) ;
#64 = DIRECTION ( 'NONE',  ( -0.000000000000000000, -0.000000000000000000, -1.000000000000000000 ) ) ;
#65 = DIRECTION ( 'NONE',  ( -1.000000000000000000, 1.224646799147350742E-16, 0.000000000000000000 ) ) ;
#66 = EDGE_CURVE ( 'NONE', #293, #29, #169, .T. ) ;
#67 = PERSON_AND_ORGANIZATION_ROLE ( 'design_supplier' ) ;
#68 = ORIENTED_EDGE ( 'NONE', *, *, #137, .F. ) ;
#69 = AXIS2_PLACEMENT_3D ( 'NONE', #90, #138, #133 ) ;
#70 = COORDINATED_UNIVERSAL_TIME_OFFSET ( 1, 0, .AHEAD. ) ;
#71 = EDGE_CURVE ( 'NONE', #291, #217, #283, .T. ) ;
#72 = COORDINATED_UNIVERSAL_TIME_OFFSET ( 1, 0, .AHEAD. ) ;
#73 = ORIENTED_EDGE ( 'NONE', *, *, #244, .F. ) ;
#74 = PERSON_AND_ORGANIZATION ( #123, #193 ) ;
#75 = EDGE_LOOP ( 'NONE', ( #245, #298, #157, #144 ) ) ;
#76 = APPROVAL_PERSON_ORGANIZATION ( #171, #204, #263 ) ;
#77 = CARTESIAN_POINT ( 'NONE',  ( -3.250000000000000444, 0.000000000000000000, 635.0000000000000000 ) ) ;
#78 = DIRECTION ( 'NONE',  ( 1.000000000000000000, 0.000000000000000000, 0.000000000000000000 ) ) ;
#79 = DIRECTION ( 'NONE',  ( 0.000000000000000000, 0.000000000000000000, 1.000000000000000000 ) ) ;
#80 = DIRECTION ( 'NONE',  ( 1.000000000000000000, 0.000000000000000000, 0.000000000000000000 ) ) ;
#81 = AXIS2_PLACEMENT_3D ( 'NONE', #83, #63, #190 ) ;
#82 = ORIENTED_EDGE ( 'NONE', *, *, #122, .T. ) ;
#83 = CARTESIAN_POINT ( 'NONE',  ( 0.000000000000000000, 0.000000000000000000, 5.000000000000000000 ) ) ;
#84 = CALENDAR_DATE ( 2022, 20, 6 ) ;
#85 = CARTESIAN_POINT ( 'NONE',  ( 3.450000000000000178, 0.000000000000000000, 5.199999999999982414 ) ) ;
#86 = TOROIDAL_SURFACE ( 'NONE', #258, 3.450000000000000178, 0.2000000000000000111 ) ;
#87 = CIRCLE ( 'NONE', #106, 0.1999999999999996503 ) ;
#88 = CARTESIAN_POINT ( 'NONE',  ( 6.000000000000000888, 7.347880794884120722E-16, 5.000000000000000000 ) ) ;
#89 = CARTESIAN_POINT ( 'NONE',  ( -3.450000000000000178, 4.225031457058368824E-16, 4.999999999999991118 ) ) ;
#90 = CARTESIAN_POINT ( 'NONE',  ( 0.000000000000000000, 0.000000000000000000, 5.000000000000000000 ) ) ;
#91 = CC_DESIGN_PERSON_AND_ORGANIZATION_ASSIGNMENT ( #114, #3, ( #9 ) ) ;
#92 = APPLICATION_PROTOCOL_DEFINITION ( 'international standard', 'config_control_design', 1994, #13 ) ;
#93 =( NAMED_UNIT ( * ) SI_UNIT ( $, .STERADIAN. ) SOLID_ANGLE_UNIT ( ) );
#94 = ORIENTED_EDGE ( 'NONE', *, *, #71, .F. ) ;
#95 = COORDINATED_UNIVERSAL_TIME_OFFSET ( 1, 0, .AHEAD. ) ;
#96 = CC_DESIGN_DATE_AND_TIME_ASSIGNMENT ( #194, #145, ( #51 ) ) ;
#97 = PERSON_AND_ORGANIZATION_ROLE ( 'classification_officer' ) ;
#98 = EDGE_LOOP ( 'NONE', ( #146, #68, #48, #94 ) ) ;
#99 = TOROIDAL_SURFACE ( 'NONE', #110, 3.450000000000000178, 0.2000000000000000111 ) ;
#100 = DIRECTION ( 'NONE',  ( 0.000000000000000000, 0.000000000000000000, 1.000000000000000000 ) ) ;
#101 = PRODUCT_RELATED_PRODUCT_CATEGORY ( 'detail', '', ( #224 ) ) ;
#102 = EDGE_LOOP ( 'NONE', ( #235, #237 ) ) ;
#103 = VERTEX_POINT ( 'NONE', #77 ) ;
#104 = ADVANCED_FACE ( 'NONE', ( #243 ), #182, .T. ) ;
#105 = ORIENTED_EDGE ( 'NONE', *, *, #137, .T. ) ;
#106 = AXIS2_PLACEMENT_3D ( 'NONE', #85, #205, #305 ) ;
#107 = FACE_OUTER_BOUND ( 'NONE', #75, .T. ) ;
#108 = CYLINDRICAL_SURFACE ( 'NONE', #184, 3.250000000000000444 ) ;
#109 = CARTESIAN_POINT ( 'NONE',  ( -6.000000000000000888, 0.000000000000000000, 5.000000000000000000 ) ) ;
#110 = AXIS2_PLACEMENT_3D ( 'NONE', #60, #25, #112 ) ;
#111 = DIRECTION ( 'NONE',  ( 1.000000000000000000, 0.000000000000000000, -0.000000000000000000 ) ) ;
#112 = DIRECTION ( 'NONE',  ( 1.000000000000000000, 0.000000000000000000, 0.000000000000000000 ) ) ;
#113 = ADVANCED_FACE ( 'NONE', ( #17 ), #203, .T. ) ;
#114 = PERSON_AND_ORGANIZATION ( #123, #193 ) ;
#115 = ADVANCED_FACE ( 'NONE', ( #246 ), #36, .T. ) ;
#116 = CARTESIAN_POINT ( 'NONE',  ( 0.000000000000000000, 0.000000000000000000, 0.000000000000000000 ) ) ;
#117 = ORIENTED_EDGE ( 'NONE', *, *, #153, .T. ) ;
#118 = EDGE_LOOP ( 'NONE', ( #121, #151, #262, #73 ) ) ;
#119 = CIRCLE ( 'NONE', #69, 6.000000000000000888 ) ;
#120 =( LENGTH_UNIT ( ) NAMED_UNIT ( * ) SI_UNIT ( .MILLI., .METRE. ) );
#121 = ORIENTED_EDGE ( 'NONE', *, *, #207, .F. ) ;
#122 = EDGE_CURVE ( 'NONE', #32, #291, #234, .T. ) ;
#123 = PERSON ( 'NEURÈENÝ', 'NEURÈENÝ', 'NEURÈENÝ', ('NEURÈENÝ'), ('NEURÈENÝ'), ('NEURÈENÝ') ) ;
#124 = DIRECTION ( 'NONE',  ( 1.000000000000000000, 0.000000000000000000, -0.000000000000000000 ) ) ;
#125 = AXIS2_PLACEMENT_3D ( 'NONE', #11, #79, #124 ) ;
#126 = APPROVAL_PERSON_ORGANIZATION ( #147, #20, #47 ) ;
#127 = ORIENTED_EDGE ( 'NONE', *, *, #214, .T. ) ;
#128 = EDGE_LOOP ( 'NONE', ( #172, #82, #200, #264 ) ) ;
#129 = APPROVAL ( #179, 'NEURÈENÝ' ) ;
#130 = FACE_OUTER_BOUND ( 'NONE', #177, .T. ) ;
#131 = CARTESIAN_POINT ( 'NONE',  ( 0.000000000000000000, 0.000000000000000000, 635.0000000000000000 ) ) ;
#132 = CC_DESIGN_APPROVAL ( #20, ( #239 ) ) ;
#133 = DIRECTION ( 'NONE',  ( 1.000000000000000000, 0.000000000000000000, 0.000000000000000000 ) ) ;
#134 = DIRECTION ( 'NONE',  ( 1.000000000000000000, 0.000000000000000000, 0.000000000000000000 ) ) ;
#135 = DIRECTION ( 'NONE',  ( 0.000000000000000000, 0.000000000000000000, 1.000000000000000000 ) ) ;
#136 = CIRCLE ( 'NONE', #304, 6.000000000000000888 ) ;
#137 = EDGE_CURVE ( 'NONE', #289, #32, #281, .T. ) ;
#138 = DIRECTION ( 'NONE',  ( 0.000000000000000000, 0.000000000000000000, 1.000000000000000000 ) ) ;
#139 = CYLINDRICAL_SURFACE ( 'NONE', #81, 6.000000000000000888 ) ;
#140 = PRODUCT_DEFINITION_SHAPE ( 'NONE', 'NONE',  #9 ) ;
#141 = CARTESIAN_POINT ( 'NONE',  ( 0.000000000000000000, 0.000000000000000000, 0.000000000000000000 ) ) ;
#142 = CC_DESIGN_SECURITY_CLASSIFICATION ( #51, ( #239 ) ) ;
#143 = APPROVAL_STATUS ( 'not_yet_approved' ) ;
#144 = ORIENTED_EDGE ( 'NONE', *, *, #186, .T. ) ;
#145 = DATE_TIME_ROLE ( 'classification_date' ) ;
#146 = ORIENTED_EDGE ( 'NONE', *, *, #122, .F. ) ;
#147 = PERSON_AND_ORGANIZATION ( #123, #193 ) ;
#148 = AXIS2_PLACEMENT_3D ( 'NONE', #131, #198, #280 ) ;
#149 = AXIS2_PLACEMENT_3D ( 'NONE', #168, #206, #111 ) ;
#150 = ADVANCED_FACE ( 'NONE', ( #107 ), #139, .T. ) ;
#151 = ORIENTED_EDGE ( 'NONE', *, *, #297, .T. ) ;
#152 = CARTESIAN_POINT ( 'NONE',  ( 0.000000000000000000, 0.000000000000000000, 5.000000000000000000 ) ) ;
#153 = EDGE_CURVE ( 'NONE', #56, #289, #249, .T. ) ;
#154 = LOCAL_TIME ( 11, 53, 53.00000000000000000, #26 ) ;
#155 = PLANE ( 'NONE',  #125 ) ;
#156 = EDGE_LOOP ( 'NONE', ( #16, #117, #105, #181 ) ) ;
#157 = ORIENTED_EDGE ( 'NONE', *, *, #244, .T. ) ;
#158 = DIRECTION ( 'NONE',  ( -0.000000000000000000, -0.000000000000000000, -1.000000000000000000 ) ) ;
#159 = EDGE_CURVE ( 'NONE', #289, #217, #87, .T. ) ;
#160 = AXIS2_PLACEMENT_3D ( 'NONE', #225, #279, #191 ) ;
#161 = APPLICATION_CONTEXT ( 'configuration controlled 3d designs of mechanical parts and assemblies' ) ;
#162 = SHAPE_DEFINITION_REPRESENTATION ( #140, #226 ) ;
#163 = COORDINATED_UNIVERSAL_TIME_OFFSET ( 1, 0, .AHEAD. ) ;
#164 = CARTESIAN_POINT ( 'NONE',  ( 0.000000000000000000, 0.000000000000000000, 635.0000000000000000 ) ) ;
#165 = DATE_AND_TIME ( #84, #199 ) ;
#166 = ADVANCED_FACE ( 'NONE', ( #187 ), #108, .T. ) ;
#167 = DESIGN_CONTEXT ( 'detailed design', #161, 'design' ) ;
#168 = CARTESIAN_POINT ( 'NONE',  ( 0.000000000000000000, 0.000000000000000000, 0.000000000000000000 ) ) ;
#169 = CIRCLE ( 'NONE', #33, 6.000000000000000888 ) ;
#170 = FACE_OUTER_BOUND ( 'NONE', #15, .T. ) ;
#171 = PERSON_AND_ORGANIZATION ( #123, #193 ) ;
#172 = ORIENTED_EDGE ( 'NONE', *, *, #221, .F. ) ;
#173 = VECTOR ( 'NONE', #228, 1000.000000000000000 ) ;
#174 = PERSON_AND_ORGANIZATION ( #123, #193 ) ;
#175 = ORIENTED_EDGE ( 'NONE', *, *, #292, .F. ) ;
#176 =( NAMED_UNIT ( * ) PLANE_ANGLE_UNIT ( ) SI_UNIT ( $, .RADIAN. ) );
#177 = EDGE_LOOP ( 'NONE', ( #54, #19 ) ) ;
#178 = ADVANCED_FACE ( 'NONE', ( #170 ), #38, .F. ) ;
#179 = APPROVAL_STATUS ( 'not_yet_approved' ) ;
#180 = AXIS2_PLACEMENT_3D ( 'NONE', #306, #158, #248 ) ;
#181 = ORIENTED_EDGE ( 'NONE', *, *, #214, .F. ) ;
#182 = CYLINDRICAL_SURFACE ( 'NONE', #45, 6.000000000000000888 ) ;
#183 = CARTESIAN_POINT ( 'NONE',  ( 3.250000000000000444, 3.980102097228898231E-16, 635.0000000000000000 ) ) ;
#184 = AXIS2_PLACEMENT_3D ( 'NONE', #250, #21, #41 ) ;
#185 = DIRECTION ( 'NONE',  ( -1.000000000000000000, 0.000000000000000000, 0.000000000000000000 ) ) ;
#186 = EDGE_CURVE ( 'NONE', #219, #6, #12, .T. ) ;
#187 = FACE_OUTER_BOUND ( 'NONE', #156, .T. ) ;
#188 = CLOSED_SHELL ( 'NONE', ( #14, #166, #104, #150, #37, #178, #115, #113, #212 ) ) ;
#189 = DIRECTION ( 'NONE',  ( 1.000000000000000000, 0.000000000000000000, 0.000000000000000000 ) ) ;
#190 = DIRECTION ( 'NONE',  ( -1.000000000000000000, 0.000000000000000000, 0.000000000000000000 ) ) ;
#191 = DIRECTION ( 'NONE',  ( 1.000000000000000000, 0.000000000000000000, 0.000000000000000000 ) ) ;
#192 = DIRECTION ( 'NONE',  ( 0.000000000000000000, 0.000000000000000000, 1.000000000000000000 ) ) ;
#193 = ORGANIZATION ( 'NEURÈENÝ', 'NEURÈENÝ', '' ) ;
#194 = DATE_AND_TIME ( #197, #154 ) ;
#195 = APPROVAL_DATE_TIME ( #4, #20 ) ;
#196 = PERSON_AND_ORGANIZATION ( #123, #193 ) ;
#197 = CALENDAR_DATE ( 2022, 20, 6 ) ;
#198 = DIRECTION ( 'NONE',  ( -0.000000000000000000, -0.000000000000000000, -1.000000000000000000 ) ) ;
#199 = LOCAL_TIME ( 11, 53, 53.00000000000000000, #163 ) ;
#200 = ORIENTED_EDGE ( 'NONE', *, *, #253, .F. ) ;
#201 = ORIENTED_EDGE ( 'NONE', *, *, #253, .T. ) ;
#202 = VECTOR ( 'NONE', #274, 1000.000000000000000 ) ;
#203 = PLANE ( 'NONE',  #209 ) ;
#204 = APPROVAL ( #284, 'NEURÈENÝ' ) ;
#205 = DIRECTION ( 'NONE',  ( 0.000000000000000000, -1.000000000000000000, 0.000000000000000000 ) ) ;
#206 = DIRECTION ( 'NONE',  ( 0.000000000000000000, 0.000000000000000000, 1.000000000000000000 ) ) ;
#207 = EDGE_CURVE ( 'NONE', #29, #293, #119, .T. ) ;
#208 = LINE ( 'NONE', #88, #55 ) ;
#209 = AXIS2_PLACEMENT_3D ( 'NONE', #300, #273, #58 ) ;
#210 = CARTESIAN_POINT ( 'NONE',  ( -6.000000000000000888, 0.000000000000000000, 5.000000000000000000 ) ) ;
#211 = CARTESIAN_POINT ( 'NONE',  ( -3.450000000000000178, 4.225031457058368824E-16, 5.199999999999982414 ) ) ;
#212 = ADVANCED_FACE ( 'NONE', ( #227 ), #99, .F. ) ;
#213 = MECHANICAL_CONTEXT ( 'NONE', #13, 'mechanical' ) ;
#214 = EDGE_CURVE ( 'NONE', #103, #32, #22, .T. ) ;
#215 = DATE_AND_TIME ( #46, #259 ) ;
#216 = MANIFOLD_SOLID_BREP ( 'Zaoblit1', #188 ) ;
#217 = VERTEX_POINT ( 'NONE', #307 ) ;
#218 = AXIS2_PLACEMENT_3D ( 'NONE', #231, #251, #43 ) ;
#219 = VERTEX_POINT ( 'NONE', #282 ) ;
#220 = DIRECTION ( 'NONE',  ( 1.000000000000000000, 0.000000000000000000, 0.000000000000000000 ) ) ;
#221 = EDGE_CURVE ( 'NONE', #32, #289, #299, .T. ) ;
#222 = APPROVAL_PERSON_ORGANIZATION ( #74, #129, #276 ) ;
#223 = CARTESIAN_POINT ( 'NONE',  ( -3.250000000000000444, 0.000000000000000000, 5.199999999999982414 ) ) ;
#224 = PRODUCT ( 'db18', 'db18', '', ( #213 ) ) ;
#225 = CARTESIAN_POINT ( 'NONE',  ( 0.000000000000000000, 0.000000000000000000, 635.0000000000000000 ) ) ;
#226 = ADVANCED_BREP_SHAPE_REPRESENTATION ( 'db18', ( #216, #229 ), #252 ) ;
#227 = FACE_OUTER_BOUND ( 'NONE', #98, .T. ) ;
#228 = DIRECTION ( 'NONE',  ( -0.000000000000000000, -0.000000000000000000, -1.000000000000000000 ) ) ;
#229 = AXIS2_PLACEMENT_3D ( 'NONE', #141, #50, #2 ) ;
#230 = UNCERTAINTY_MEASURE_WITH_UNIT (LENGTH_MEASURE( 1.000000000000000082E-05 ), #120, 'distance_accuracy_value', 'NONE');
#231 = CARTESIAN_POINT ( 'NONE',  ( 0.000000000000000000, 0.000000000000000000, 0.000000000000000000 ) ) ;
#232 = DIRECTION ( 'NONE',  ( 1.224646799147353207E-16, 1.000000000000000000, -0.000000000000000000 ) ) ;
#233 = CC_DESIGN_DATE_AND_TIME_ASSIGNMENT ( #285, #8, ( #9 ) ) ;
#234 = CIRCLE ( 'NONE', #267, 0.2000000000000000944 ) ;
#235 = ORIENTED_EDGE ( 'NONE', *, *, #292, .T. ) ;
#236 = DIRECTION ( 'NONE',  ( 1.000000000000000000, 0.000000000000000000, 0.000000000000000000 ) ) ;
#237 = ORIENTED_EDGE ( 'NONE', *, *, #260, .T. ) ;
#238 = PERSON_AND_ORGANIZATION ( #123, #193 ) ;
#239 = PRODUCT_DEFINITION_FORMATION_WITH_SPECIFIED_SOURCE ( 'LIBOVOLNÝ', '', #224, .NOT_KNOWN. ) ;
#240 = CARTESIAN_POINT ( 'NONE',  ( 6.000000000000000888, 7.347880794884120722E-16, 5.000000000000000000 ) ) ;
#241 = CARTESIAN_POINT ( 'NONE',  ( 6.000000000000000888, 7.347880794884120722E-16, 0.000000000000000000 ) ) ;
#242 = LOCAL_TIME ( 11, 53, 53.00000000000000000, #70 ) ;
#243 = FACE_OUTER_BOUND ( 'NONE', #118, .T. ) ;
#244 = EDGE_CURVE ( 'NONE', #293, #219, #44, .T. ) ;
#245 = ORIENTED_EDGE ( 'NONE', *, *, #297, .F. ) ;
#246 = FACE_OUTER_BOUND ( 'NONE', #256, .T. ) ;
#247 = AXIS2_PLACEMENT_3D ( 'NONE', #164, #40, #134 ) ;
#248 = DIRECTION ( 'NONE',  ( 1.000000000000000000, 0.000000000000000000, 0.000000000000000000 ) ) ;
#249 = LINE ( 'NONE', #24, #42 ) ;
#250 = CARTESIAN_POINT ( 'NONE',  ( 0.000000000000000000, 0.000000000000000000, 635.0000000000000000 ) ) ;
#251 = DIRECTION ( 'NONE',  ( 0.000000000000000000, 0.000000000000000000, 1.000000000000000000 ) ) ;
#252 =( GEOMETRIC_REPRESENTATION_CONTEXT ( 3 ) GLOBAL_UNCERTAINTY_ASSIGNED_CONTEXT ( ( #230 ) ) GLOBAL_UNIT_ASSIGNED_CONTEXT ( ( #120, #176, #93 ) ) REPRESENTATION_CONTEXT ( 'NONE', 'WORKASPACE' ) );
#253 = EDGE_CURVE ( 'NONE', #217, #291, #18, .T. ) ;
#254 = CARTESIAN_POINT ( 'NONE',  ( 0.000000000000000000, 0.000000000000000000, 5.199999999999982414 ) ) ;
#255 = DIRECTION ( 'NONE',  ( -0.000000000000000000, -0.000000000000000000, -1.000000000000000000 ) ) ;
#256 = EDGE_LOOP ( 'NONE', ( #10, #175, #127, #286 ) ) ;
#257 = PERSON_AND_ORGANIZATION_ROLE ( 'design_owner' ) ;
#258 = AXIS2_PLACEMENT_3D ( 'NONE', #269, #34, #80 ) ;
#259 = LOCAL_TIME ( 11, 53, 53.00000000000000000, #95 ) ;
#260 = EDGE_CURVE ( 'NONE', #56, #103, #271, .T. ) ;
#261 = APPLICATION_PROTOCOL_DEFINITION ( 'international standard', 'config_control_design', 1994, #161 ) ;
#262 = ORIENTED_EDGE ( 'NONE', *, *, #302, .T. ) ;
#263 = APPROVAL_ROLE ( '' ) ;
#264 = ORIENTED_EDGE ( 'NONE', *, *, #159, .F. ) ;
#265 = DIRECTION ( 'NONE',  ( 0.000000000000000000, 0.000000000000000000, 1.000000000000000000 ) ) ;
#266 = EDGE_LOOP ( 'NONE', ( #201, #30 ) ) ;
#267 = AXIS2_PLACEMENT_3D ( 'NONE', #211, #232, #65 ) ;
#268 = FACE_BOUND ( 'NONE', #266, .T. ) ;
#269 = CARTESIAN_POINT ( 'NONE',  ( 0.000000000000000000, 0.000000000000000000, 5.199999999999982414 ) ) ;
#270 = DIRECTION ( 'NONE',  ( -0.000000000000000000, -0.000000000000000000, -1.000000000000000000 ) ) ;
#271 = CIRCLE ( 'NONE', #160, 3.250000000000000444 ) ;
#272 = ORIENTED_EDGE ( 'NONE', *, *, #302, .F. ) ;
#273 = DIRECTION ( 'NONE',  ( 0.000000000000000000, 0.000000000000000000, 1.000000000000000000 ) ) ;
#274 = DIRECTION ( 'NONE',  ( -0.000000000000000000, -0.000000000000000000, -1.000000000000000000 ) ) ;
#275 = APPROVAL_DATE_TIME ( #165, #129 ) ;
#276 = APPROVAL_ROLE ( '' ) ;
#277 = CC_DESIGN_APPROVAL ( #129, ( #51 ) ) ;
#278 = DIRECTION ( 'NONE',  ( 1.000000000000000000, 0.000000000000000000, 0.000000000000000000 ) ) ;
#279 = DIRECTION ( 'NONE',  ( 0.000000000000000000, 0.000000000000000000, 1.000000000000000000 ) ) ;
#280 = DIRECTION ( 'NONE',  ( -1.000000000000000000, 0.000000000000000000, 0.000000000000000000 ) ) ;
#281 = CIRCLE ( 'NONE', #61, 3.250000000000000444 ) ;
#282 = CARTESIAN_POINT ( 'NONE',  ( -6.000000000000000888, 0.000000000000000000, 0.000000000000000000 ) ) ;
#283 = CIRCLE ( 'NONE', #294, 3.450000000000000178 ) ;
#284 = APPROVAL_STATUS ( 'not_yet_approved' ) ;
#285 = DATE_AND_TIME ( #49, #23 ) ;
#286 = ORIENTED_EDGE ( 'NONE', *, *, #221, .T. ) ;
#287 = SECURITY_CLASSIFICATION_LEVEL ( 'unclassified' ) ;
#288 = CC_DESIGN_PERSON_AND_ORGANIZATION_ASSIGNMENT ( #238, #290, ( #239 ) ) ;
#289 = VERTEX_POINT ( 'NONE', #62 ) ;
#290 = PERSON_AND_ORGANIZATION_ROLE ( 'creator' ) ;
#291 = VERTEX_POINT ( 'NONE', #89 ) ;
#292 = EDGE_CURVE ( 'NONE', #103, #56, #7, .T. ) ;
#293 = VERTEX_POINT ( 'NONE', #109 ) ;
#294 = AXIS2_PLACEMENT_3D ( 'NONE', #295, #53, #220 ) ;
#295 = CARTESIAN_POINT ( 'NONE',  ( 0.000000000000000000, 0.000000000000000000, 5.000000000000000000 ) ) ;
#296 = ORIENTED_EDGE ( 'NONE', *, *, #186, .F. ) ;
#297 = EDGE_CURVE ( 'NONE', #29, #6, #208, .T. ) ;
#298 = ORIENTED_EDGE ( 'NONE', *, *, #66, .F. ) ;
#299 = CIRCLE ( 'NONE', #1, 3.250000000000000444 ) ;
#300 = CARTESIAN_POINT ( 'NONE',  ( 0.000000000000000000, 0.000000000000000000, 635.0000000000000000 ) ) ;
#301 = CARTESIAN_POINT ( 'NONE',  ( -3.250000000000000444, 0.000000000000000000, 635.0000000000000000 ) ) ;
#302 = EDGE_CURVE ( 'NONE', #6, #219, #136, .T. ) ;
#303 = CARTESIAN_POINT ( 'NONE',  ( 0.000000000000000000, 0.000000000000000000, 5.199999999999982414 ) ) ;
#304 = AXIS2_PLACEMENT_3D ( 'NONE', #116, #265, #236 ) ;
#305 = DIRECTION ( 'NONE',  ( 0.000000000000000000, 0.000000000000000000, -1.000000000000000000 ) ) ;
#306 = CARTESIAN_POINT ( 'NONE',  ( 0.000000000000000000, 0.000000000000000000, 5.000000000000000000 ) ) ;
#307 = CARTESIAN_POINT ( 'NONE',  ( 3.450000000000000178, 0.000000000000000000, 4.999999999999991118 ) ) ;
ENDSEC;
END-ISO-10303-21;
