ISO-10303-21;
HEADER;
FILE_DESCRIPTION (( 'STEP AP203' ),
    '1' );
FILE_NAME ('ba50.STEP',
    '2022-06-20T09:46:34',
    ( '' ),
    ( '' ),
    'SwSTEP 2.0',
    'SolidWorks 2019',
    '' );
FILE_SCHEMA (( 'CONFIG_CONTROL_DESIGN' ));
ENDSEC;

DATA;
#1 = DIRECTION ( 'NONE',  ( 1.000000000000000000, 0.000000000000000000, 0.000000000000000000 ) ) ;
#2 = DIRECTION ( 'NONE',  ( 1.000000000000000000, 0.000000000000000000, 0.000000000000000000 ) ) ;
#3 = TOROIDAL_SURFACE ( 'NONE', #147, 4.299999999999998934, 0.2000000000000000111 ) ;
#4 = CC_DESIGN_APPROVAL ( #218, ( #281 ) ) ;
#5 = ADVANCED_FACE ( 'NONE', ( #307 ), #88, .T. ) ;
#6 = APPROVAL_ROLE ( '' ) ;
#7 = CARTESIAN_POINT ( 'NONE',  ( 7.000000000000000000, 8.572527594031473190E-16, 0.000000000000000000 ) ) ;
#8 = APPROVAL_STATUS ( 'not_yet_approved' ) ;
#9 = EDGE_CURVE ( 'NONE', #155, #176, #208, .T. ) ;
#10 = APPROVAL_ROLE ( '' ) ;
#11 = PERSON_AND_ORGANIZATION ( #112, #272 ) ;
#12 = VERTEX_POINT ( 'NONE', #91 ) ;
#13 = CC_DESIGN_DATE_AND_TIME_ASSIGNMENT ( #103, #140, ( #281 ) ) ;
#14 = CARTESIAN_POINT ( 'NONE',  ( 0.000000000000000000, 0.000000000000000000, 5.000000000000000000 ) ) ;
#15 = DIRECTION ( 'NONE',  ( 1.000000000000000000, 0.000000000000000000, 0.000000000000000000 ) ) ;
#16 = ORIENTED_EDGE ( 'NONE', *, *, #65, .F. ) ;
#17 = VERTEX_POINT ( 'NONE', #209 ) ;
#18 = EDGE_CURVE ( 'NONE', #21, #224, #52, .T. ) ;
#19 = LOCAL_TIME ( 11, 46, 34.00000000000000000, #32 ) ;
#20 = DIRECTION ( 'NONE',  ( -0.000000000000000000, -0.000000000000000000, -1.000000000000000000 ) ) ;
#21 = VERTEX_POINT ( 'NONE', #95 ) ;
#22 = ORIENTED_EDGE ( 'NONE', *, *, #203, .F. ) ;
#23 = AXIS2_PLACEMENT_3D ( 'NONE', #14, #215, #269 ) ;
#24 = CARTESIAN_POINT ( 'NONE',  ( 0.000000000000000000, 0.000000000000000000, 0.000000000000000000 ) ) ;
#25 = ORIENTED_EDGE ( 'NONE', *, *, #230, .F. ) ;
#26 = DIRECTION ( 'NONE',  ( 0.000000000000000000, 0.000000000000000000, 1.000000000000000000 ) ) ;
#27 = VECTOR ( 'NONE', #30, 1000.000000000000000 ) ;
#28 = CARTESIAN_POINT ( 'NONE',  ( 0.000000000000000000, 0.000000000000000000, 0.000000000000000000 ) ) ;
#29 = DIRECTION ( 'NONE',  ( -0.000000000000000000, -0.000000000000000000, -1.000000000000000000 ) ) ;
#30 = DIRECTION ( 'NONE',  ( -0.000000000000000000, -0.000000000000000000, -1.000000000000000000 ) ) ;
#31 = DESIGN_CONTEXT ( 'detailed design', #129, 'design' ) ;
#32 = COORDINATED_UNIVERSAL_TIME_OFFSET ( 1, 0, .AHEAD. ) ;
#33 = CLOSED_SHELL ( 'NONE', ( #291, #142, #303, #5, #271, #174, #114, #186, #277 ) ) ;
#34 = DIRECTION ( 'NONE',  ( 0.000000000000000000, 0.000000000000000000, 1.000000000000000000 ) ) ;
#35 = DATE_AND_TIME ( #214, #162 ) ;
#36 = CARTESIAN_POINT ( 'NONE',  ( 0.000000000000000000, 0.000000000000000000, 505.0000000000000000 ) ) ;
#37 = AXIS2_PLACEMENT_3D ( 'NONE', #172, #149, #40 ) ;
#38 = EDGE_LOOP ( 'NONE', ( #125, #171, #233, #304 ) ) ;
#39 = CALENDAR_DATE ( 2022, 20, 6 ) ;
#40 = DIRECTION ( 'NONE',  ( 1.000000000000000000, 0.000000000000000000, -0.000000000000000000 ) ) ;
#41 = DIRECTION ( 'NONE',  ( -1.000000000000000000, 0.000000000000000000, 0.000000000000000000 ) ) ;
#42 = CARTESIAN_POINT ( 'NONE',  ( 0.000000000000000000, 0.000000000000000000, 5.199999999999982414 ) ) ;
#43 = EDGE_CURVE ( 'NONE', #224, #157, #85, .T. ) ;
#44 = FACE_OUTER_BOUND ( 'NONE', #132, .T. ) ;
#45 = SECURITY_CLASSIFICATION ( '', '', #121 ) ;
#46 = DIRECTION ( 'NONE',  ( -1.000000000000000000, 0.000000000000000000, 0.000000000000000000 ) ) ;
#47 = EDGE_LOOP ( 'NONE', ( #227, #178 ) ) ;
#48 = CC_DESIGN_PERSON_AND_ORGANIZATION_ASSIGNMENT ( #165, #245, ( #89 ) ) ;
#49 = CC_DESIGN_PERSON_AND_ORGANIZATION_ASSIGNMENT ( #102, #99, ( #89 ) ) ;
#50 = DIRECTION ( 'NONE',  ( 0.000000000000000000, 0.000000000000000000, 1.000000000000000000 ) ) ;
#51 =( NAMED_UNIT ( * ) SI_UNIT ( $, .STERADIAN. ) SOLID_ANGLE_UNIT ( ) );
#52 = LINE ( 'NONE', #286, #27 ) ;
#53 = DIRECTION ( 'NONE',  ( 0.000000000000000000, 0.000000000000000000, 1.000000000000000000 ) ) ;
#54 = AXIS2_PLACEMENT_3D ( 'NONE', #247, #154, #222 ) ;
#55 = PRODUCT_RELATED_PRODUCT_CATEGORY ( 'detail', '', ( #169 ) ) ;
#56 = CIRCLE ( 'NONE', #93, 4.099999999999999645 ) ;
#57 = FACE_BOUND ( 'NONE', #67, .T. ) ;
#58 = ORIENTED_EDGE ( 'NONE', *, *, #18, .T. ) ;
#59 = EDGE_CURVE ( 'NONE', #302, #176, #94, .T. ) ;
#60 = ORIENTED_EDGE ( 'NONE', *, *, #261, .F. ) ;
#61 = FACE_OUTER_BOUND ( 'NONE', #38, .T. ) ;
#62 = ORIENTED_EDGE ( 'NONE', *, *, #71, .F. ) ;
#63 = CARTESIAN_POINT ( 'NONE',  ( 4.299999999999998934, 0.000000000000000000, 5.199999999999982414 ) ) ;
#64 = VERTEX_POINT ( 'NONE', #183 ) ;
#65 = EDGE_CURVE ( 'NONE', #224, #279, #168, .T. ) ;
#66 = DIRECTION ( 'NONE',  ( 0.000000000000000000, 0.000000000000000000, 1.000000000000000000 ) ) ;
#67 = EDGE_LOOP ( 'NONE', ( #199, #257 ) ) ;
#68 = CIRCLE ( 'NONE', #120, 7.000000000000000000 ) ;
#69 = CIRCLE ( 'NONE', #265, 7.000000000000000000 ) ;
#70 = CARTESIAN_POINT ( 'NONE',  ( -4.299999999999998934, 5.265981236333617484E-16, 5.199999999999982414 ) ) ;
#71 = EDGE_CURVE ( 'NONE', #279, #17, #258, .T. ) ;
#72 = CARTESIAN_POINT ( 'NONE',  ( 0.000000000000000000, 0.000000000000000000, 0.000000000000000000 ) ) ;
#73 = PERSON_AND_ORGANIZATION ( #112, #272 ) ;
#74 = CARTESIAN_POINT ( 'NONE',  ( 0.000000000000000000, 0.000000000000000000, 5.199999999999982414 ) ) ;
#75 = TOROIDAL_SURFACE ( 'NONE', #295, 4.299999999999998934, 0.2000000000000000111 ) ;
#76 = COORDINATED_UNIVERSAL_TIME_OFFSET ( 1, 0, .AHEAD. ) ;
#77 = SHAPE_DEFINITION_REPRESENTATION ( #273, #134 ) ;
#78 = PERSON_AND_ORGANIZATION_ROLE ( 'classification_officer' ) ;
#79 = COORDINATED_UNIVERSAL_TIME_OFFSET ( 1, 0, .AHEAD. ) ;
#80 = ORIENTED_EDGE ( 'NONE', *, *, #167, .T. ) ;
#81 = AXIS2_PLACEMENT_3D ( 'NONE', #36, #118, #197 ) ;
#82 = EDGE_CURVE ( 'NONE', #12, #302, #156, .T. ) ;
#83 = DIRECTION ( 'NONE',  ( 1.000000000000000000, 0.000000000000000000, 0.000000000000000000 ) ) ;
#84 = ORIENTED_EDGE ( 'NONE', *, *, #130, .F. ) ;
#85 = CIRCLE ( 'NONE', #262, 4.099999999999999645 ) ;
#86 = ORIENTED_EDGE ( 'NONE', *, *, #18, .F. ) ;
#87 = CC_DESIGN_PERSON_AND_ORGANIZATION_ASSIGNMENT ( #190, #78, ( #45 ) ) ;
#88 = CYLINDRICAL_SURFACE ( 'NONE', #188, 7.000000000000000000 ) ;
#89 = PRODUCT_DEFINITION_FORMATION_WITH_SPECIFIED_SOURCE ( 'LIBOVOLNÝ', '', #169, .NOT_KNOWN. ) ;
#90 = FACE_OUTER_BOUND ( 'NONE', #285, .T. ) ;
#91 = CARTESIAN_POINT ( 'NONE',  ( -7.000000000000000000, 0.000000000000000000, 5.000000000000000000 ) ) ;
#92 = EDGE_CURVE ( 'NONE', #176, #155, #68, .T. ) ;
#93 = AXIS2_PLACEMENT_3D ( 'NONE', #231, #108, #179 ) ;
#94 = LINE ( 'NONE', #158, #232 ) ;
#95 = CARTESIAN_POINT ( 'NONE',  ( -4.099999999999999645, 0.000000000000000000, 505.0000000000000000 ) ) ;
#96 = EDGE_CURVE ( 'NONE', #302, #12, #69, .T. ) ;
#97 = APPROVAL_DATE_TIME ( #35, #266 ) ;
#98 = FACE_OUTER_BOUND ( 'NONE', #47, .T. ) ;
#99 = PERSON_AND_ORGANIZATION_ROLE ( 'design_supplier' ) ;
#100 = CYLINDRICAL_SURFACE ( 'NONE', #81, 4.099999999999999645 ) ;
#101 = APPLICATION_CONTEXT ( 'configuration controlled 3d designs of mechanical parts and assemblies' ) ;
#102 = PERSON_AND_ORGANIZATION ( #112, #272 ) ;
#103 = DATE_AND_TIME ( #39, #221 ) ;
#104 = PERSON_AND_ORGANIZATION ( #112, #272 ) ;
#105 = AXIS2_PLACEMENT_3D ( 'NONE', #139, #136, #2 ) ;
#106 = FACE_OUTER_BOUND ( 'NONE', #148, .T. ) ;
#107 = ORIENTED_EDGE ( 'NONE', *, *, #203, .T. ) ;
#108 = DIRECTION ( 'NONE',  ( 0.000000000000000000, 0.000000000000000000, 1.000000000000000000 ) ) ;
#109 = ORIENTED_EDGE ( 'NONE', *, *, #92, .F. ) ;
#110 = CYLINDRICAL_SURFACE ( 'NONE', #305, 4.099999999999999645 ) ;
#111 = DIRECTION ( 'NONE',  ( 1.000000000000000000, 0.000000000000000000, 0.000000000000000000 ) ) ;
#112 = PERSON ( 'NEURÈENÝ', 'NEURÈENÝ', 'NEURÈENÝ', ('NEURÈENÝ'), ('NEURÈENÝ'), ('NEURÈENÝ') ) ;
#113 = MANIFOLD_SOLID_BREP ( 'Zaoblit1', #33 ) ;
#114 = ADVANCED_FACE ( 'NONE', ( #90 ), #110, .T. ) ;
#115 = CC_DESIGN_DATE_AND_TIME_ASSIGNMENT ( #193, #196, ( #45 ) ) ;
#116 = DIRECTION ( 'NONE',  ( 1.000000000000000000, 0.000000000000000000, -0.000000000000000000 ) ) ;
#117 = PERSON_AND_ORGANIZATION_ROLE ( 'creator' ) ;
#118 = DIRECTION ( 'NONE',  ( -0.000000000000000000, -0.000000000000000000, -1.000000000000000000 ) ) ;
#119 = CALENDAR_DATE ( 2022, 20, 6 ) ;
#120 = AXIS2_PLACEMENT_3D ( 'NONE', #72, #26, #263 ) ;
#121 = SECURITY_CLASSIFICATION_LEVEL ( 'unclassified' ) ;
#122 = CIRCLE ( 'NONE', #126, 4.099999999999999645 ) ;
#123 = ORIENTED_EDGE ( 'NONE', *, *, #65, .T. ) ;
#124 = CARTESIAN_POINT ( 'NONE',  ( -4.299999999999998934, 5.265981236333617484E-16, 4.999999999999991118 ) ) ;
#125 = ORIENTED_EDGE ( 'NONE', *, *, #96, .F. ) ;
#126 = AXIS2_PLACEMENT_3D ( 'NONE', #251, #66, #299 ) ;
#127 = CYLINDRICAL_SURFACE ( 'NONE', #237, 7.000000000000000000 ) ;
#128 = LOCAL_TIME ( 11, 46, 34.00000000000000000, #76 ) ;
#129 = APPLICATION_CONTEXT ( 'configuration controlled 3d designs of mechanical parts and assemblies' ) ;
#130 = EDGE_CURVE ( 'NONE', #21, #64, #170, .T. ) ;
#131 = CARTESIAN_POINT ( 'NONE',  ( 0.000000000000000000, 0.000000000000000000, 5.199999999999982414 ) ) ;
#132 = EDGE_LOOP ( 'NONE', ( #253, #243 ) ) ;
#133 = EDGE_CURVE ( 'NONE', #17, #279, #159, .T. ) ;
#134 = ADVANCED_BREP_SHAPE_REPRESENTATION ( 'ba50', ( #113, #255 ), #185 ) ;
#135 = DIRECTION ( 'NONE',  ( -1.000000000000000000, 1.224646799147353454E-16, 0.000000000000000000 ) ) ;
#136 = DIRECTION ( 'NONE',  ( -0.000000000000000000, -0.000000000000000000, -1.000000000000000000 ) ) ;
#137 = DIRECTION ( 'NONE',  ( 0.000000000000000000, 0.000000000000000000, 1.000000000000000000 ) ) ;
#138 = APPROVAL_DATE_TIME ( #288, #218 ) ;
#139 = CARTESIAN_POINT ( 'NONE',  ( 0.000000000000000000, 0.000000000000000000, 5.000000000000000000 ) ) ;
#140 = DATE_TIME_ROLE ( 'creation_date' ) ;
#141 = AXIS2_PLACEMENT_3D ( 'NONE', #63, #152, #306 ) ;
#142 = ADVANCED_FACE ( 'NONE', ( #276 ), #100, .T. ) ;
#143 = CARTESIAN_POINT ( 'NONE',  ( -7.000000000000000000, 0.000000000000000000, 0.000000000000000000 ) ) ;
#144 = APPROVAL_STATUS ( 'not_yet_approved' ) ;
#145 = FACE_OUTER_BOUND ( 'NONE', #282, .T. ) ;
#146 = CARTESIAN_POINT ( 'NONE',  ( -7.000000000000000000, 0.000000000000000000, 5.000000000000000000 ) ) ;
#147 = AXIS2_PLACEMENT_3D ( 'NONE', #42, #249, #15 ) ;
#148 = EDGE_LOOP ( 'NONE', ( #16, #205, #153, #62 ) ) ;
#149 = DIRECTION ( 'NONE',  ( 0.000000000000000000, 0.000000000000000000, 1.000000000000000000 ) ) ;
#150 = AXIS2_PLACEMENT_3D ( 'NONE', #28, #53, #207 ) ;
#151 = ORIENTED_EDGE ( 'NONE', *, *, #9, .T. ) ;
#152 = DIRECTION ( 'NONE',  ( 0.000000000000000000, -1.000000000000000000, 0.000000000000000000 ) ) ;
#153 = ORIENTED_EDGE ( 'NONE', *, *, #230, .T. ) ;
#154 = DIRECTION ( 'NONE',  ( 0.000000000000000000, 0.000000000000000000, 1.000000000000000000 ) ) ;
#155 = VERTEX_POINT ( 'NONE', #143 ) ;
#156 = CIRCLE ( 'NONE', #182, 7.000000000000000000 ) ;
#157 = VERTEX_POINT ( 'NONE', #290 ) ;
#158 = CARTESIAN_POINT ( 'NONE',  ( 7.000000000000000000, 8.572527594031473190E-16, 5.000000000000000000 ) ) ;
#159 = CIRCLE ( 'NONE', #23, 4.299999999999998934 ) ;
#160 = MECHANICAL_CONTEXT ( 'NONE', #101, 'mechanical' ) ;
#161 = DIRECTION ( 'NONE',  ( 0.000000000000000000, 0.000000000000000000, 1.000000000000000000 ) ) ;
#162 = LOCAL_TIME ( 11, 46, 34.00000000000000000, #79 ) ;
#163 = CALENDAR_DATE ( 2022, 20, 6 ) ;
#164 = APPROVAL_PERSON_ORGANIZATION ( #11, #266, #10 ) ;
#165 = PERSON_AND_ORGANIZATION ( #112, #272 ) ;
#166 = PLANE ( 'NONE',  #213 ) ;
#167 = EDGE_CURVE ( 'NONE', #12, #155, #242, .T. ) ;
#168 = CIRCLE ( 'NONE', #211, 0.1999999999999996503 ) ;
#169 = PRODUCT ( 'ba50', 'ba50', '', ( #160 ) ) ;
#170 = CIRCLE ( 'NONE', #246, 4.099999999999999645 ) ;
#171 = ORIENTED_EDGE ( 'NONE', *, *, #59, .T. ) ;
#172 = CARTESIAN_POINT ( 'NONE',  ( 0.000000000000000000, 0.000000000000000000, 505.0000000000000000 ) ) ;
#173 = ORIENTED_EDGE ( 'NONE', *, *, #43, .T. ) ;
#174 = ADVANCED_FACE ( 'NONE', ( #145 ), #166, .F. ) ;
#175 = CARTESIAN_POINT ( 'NONE',  ( 7.000000000000000000, 8.572527594031473190E-16, 5.000000000000000000 ) ) ;
#176 = VERTEX_POINT ( 'NONE', #7 ) ;
#177 = PLANE ( 'NONE',  #37 ) ;
#178 = ORIENTED_EDGE ( 'NONE', *, *, #261, .T. ) ;
#179 = DIRECTION ( 'NONE',  ( 1.000000000000000000, 0.000000000000000000, 0.000000000000000000 ) ) ;
#180 = DIRECTION ( 'NONE',  ( -0.000000000000000000, -0.000000000000000000, -1.000000000000000000 ) ) ;
#181 = APPLICATION_PROTOCOL_DEFINITION ( 'international standard', 'config_control_design', 1994, #101 ) ;
#182 = AXIS2_PLACEMENT_3D ( 'NONE', #239, #50, #264 ) ;
#183 = CARTESIAN_POINT ( 'NONE',  ( 4.099999999999999645, 5.021051876504147385E-16, 505.0000000000000000 ) ) ;
#184 =( NAMED_UNIT ( * ) PLANE_ANGLE_UNIT ( ) SI_UNIT ( $, .RADIAN. ) );
#185 =( GEOMETRIC_REPRESENTATION_CONTEXT ( 3 ) GLOBAL_UNCERTAINTY_ASSIGNED_CONTEXT ( ( #217 ) ) GLOBAL_UNIT_ASSIGNED_CONTEXT ( ( #259, #184, #51 ) ) REPRESENTATION_CONTEXT ( 'NONE', 'WORKASPACE' ) );
#186 = ADVANCED_FACE ( 'NONE', ( #98 ), #177, .T. ) ;
#187 = DIRECTION ( 'NONE',  ( -0.000000000000000000, -0.000000000000000000, -1.000000000000000000 ) ) ;
#188 = AXIS2_PLACEMENT_3D ( 'NONE', #250, #180, #41 ) ;
#189 = APPROVAL ( #274, 'NEURÈENÝ' ) ;
#190 = PERSON_AND_ORGANIZATION ( #112, #272 ) ;
#191 = APPROVAL_PERSON_ORGANIZATION ( #104, #218, #6 ) ;
#192 = APPROVAL_ROLE ( '' ) ;
#193 = DATE_AND_TIME ( #219, #19 ) ;
#194 = PERSON_AND_ORGANIZATION ( #112, #272 ) ;
#195 = CC_DESIGN_APPROVAL ( #189, ( #45 ) ) ;
#196 = DATE_TIME_ROLE ( 'classification_date' ) ;
#197 = DIRECTION ( 'NONE',  ( -1.000000000000000000, 0.000000000000000000, 0.000000000000000000 ) ) ;
#198 = DIRECTION ( 'NONE',  ( -0.000000000000000000, -0.000000000000000000, -1.000000000000000000 ) ) ;
#199 = ORIENTED_EDGE ( 'NONE', *, *, #133, .T. ) ;
#200 = VECTOR ( 'NONE', #198, 1000.000000000000000 ) ;
#201 = PLANE ( 'NONE',  #54 ) ;
#202 = EDGE_LOOP ( 'NONE', ( #300, #229, #80, #151 ) ) ;
#203 = EDGE_CURVE ( 'NONE', #64, #157, #284, .T. ) ;
#204 = EDGE_LOOP ( 'NONE', ( #280, #123, #298, #25 ) ) ;
#205 = ORIENTED_EDGE ( 'NONE', *, *, #244, .F. ) ;
#206 = DIRECTION ( 'NONE',  ( 0.000000000000000000, 0.000000000000000000, 1.000000000000000000 ) ) ;
#207 = DIRECTION ( 'NONE',  ( 1.000000000000000000, 0.000000000000000000, 0.000000000000000000 ) ) ;
#208 = CIRCLE ( 'NONE', #150, 7.000000000000000000 ) ;
#209 = CARTESIAN_POINT ( 'NONE',  ( 4.299999999999998934, 0.000000000000000000, 4.999999999999991118 ) ) ;
#210 = DIRECTION ( 'NONE',  ( -1.000000000000000000, 0.000000000000000000, 0.000000000000000000 ) ) ;
#211 = AXIS2_PLACEMENT_3D ( 'NONE', #70, #267, #135 ) ;
#212 = PERSON_AND_ORGANIZATION_ROLE ( 'design_owner' ) ;
#213 = AXIS2_PLACEMENT_3D ( 'NONE', #275, #34, #116 ) ;
#214 = CALENDAR_DATE ( 2022, 20, 6 ) ;
#215 = DIRECTION ( 'NONE',  ( -0.000000000000000000, -0.000000000000000000, -1.000000000000000000 ) ) ;
#216 = APPROVAL_DATE_TIME ( #270, #189 ) ;
#217 = UNCERTAINTY_MEASURE_WITH_UNIT (LENGTH_MEASURE( 1.000000000000000082E-05 ), #259, 'distance_accuracy_value', 'NONE');
#218 = APPROVAL ( #8, 'NEURÈENÝ' ) ;
#219 = CALENDAR_DATE ( 2022, 20, 6 ) ;
#220 = DIRECTION ( 'NONE',  ( 1.000000000000000000, 0.000000000000000000, 0.000000000000000000 ) ) ;
#221 = LOCAL_TIME ( 11, 46, 34.00000000000000000, #268 ) ;
#222 = DIRECTION ( 'NONE',  ( 1.000000000000000000, 0.000000000000000000, -0.000000000000000000 ) ) ;
#223 = CARTESIAN_POINT ( 'NONE',  ( -4.099999999999999645, 0.000000000000000000, 5.199999999999982414 ) ) ;
#224 = VERTEX_POINT ( 'NONE', #223 ) ;
#225 = VECTOR ( 'NONE', #296, 1000.000000000000000 ) ;
#226 = CARTESIAN_POINT ( 'NONE',  ( 4.099999999999999645, 5.021051876504147385E-16, 505.0000000000000000 ) ) ;
#227 = ORIENTED_EDGE ( 'NONE', *, *, #130, .T. ) ;
#228 = CARTESIAN_POINT ( 'NONE',  ( 0.000000000000000000, 0.000000000000000000, 5.000000000000000000 ) ) ;
#229 = ORIENTED_EDGE ( 'NONE', *, *, #82, .F. ) ;
#230 = EDGE_CURVE ( 'NONE', #157, #17, #241, .T. ) ;
#231 = CARTESIAN_POINT ( 'NONE',  ( 0.000000000000000000, 0.000000000000000000, 5.199999999999982414 ) ) ;
#232 = VECTOR ( 'NONE', #187, 1000.000000000000000 ) ;
#233 = ORIENTED_EDGE ( 'NONE', *, *, #92, .T. ) ;
#234 = CARTESIAN_POINT ( 'NONE',  ( 0.000000000000000000, 0.000000000000000000, 5.000000000000000000 ) ) ;
#235 = CARTESIAN_POINT ( 'NONE',  ( 0.000000000000000000, 0.000000000000000000, 505.0000000000000000 ) ) ;
#236 = APPROVAL_PERSON_ORGANIZATION ( #73, #189, #192 ) ;
#237 = AXIS2_PLACEMENT_3D ( 'NONE', #228, #20, #46 ) ;
#238 = CC_DESIGN_PERSON_AND_ORGANIZATION_ASSIGNMENT ( #194, #212, ( #169 ) ) ;
#239 = CARTESIAN_POINT ( 'NONE',  ( 0.000000000000000000, 0.000000000000000000, 5.000000000000000000 ) ) ;
#240 = DIRECTION ( 'NONE',  ( 0.000000000000000000, 0.000000000000000000, 1.000000000000000000 ) ) ;
#241 = CIRCLE ( 'NONE', #141, 0.1999999999999996503 ) ;
#242 = LINE ( 'NONE', #146, #225 ) ;
#243 = ORIENTED_EDGE ( 'NONE', *, *, #96, .T. ) ;
#244 = EDGE_CURVE ( 'NONE', #157, #224, #56, .T. ) ;
#245 = PERSON_AND_ORGANIZATION_ROLE ( 'creator' ) ;
#246 = AXIS2_PLACEMENT_3D ( 'NONE', #293, #240, #220 ) ;
#247 = CARTESIAN_POINT ( 'NONE',  ( 0.000000000000000000, 0.000000000000000000, 5.000000000000000000 ) ) ;
#248 = LOCAL_TIME ( 11, 46, 34.00000000000000000, #289 ) ;
#249 = DIRECTION ( 'NONE',  ( 0.000000000000000000, 0.000000000000000000, 1.000000000000000000 ) ) ;
#250 = CARTESIAN_POINT ( 'NONE',  ( 0.000000000000000000, 0.000000000000000000, 5.000000000000000000 ) ) ;
#251 = CARTESIAN_POINT ( 'NONE',  ( 0.000000000000000000, 0.000000000000000000, 505.0000000000000000 ) ) ;
#252 = ORIENTED_EDGE ( 'NONE', *, *, #244, .T. ) ;
#253 = ORIENTED_EDGE ( 'NONE', *, *, #82, .T. ) ;
#254 = CC_DESIGN_APPROVAL ( #266, ( #89 ) ) ;
#255 = AXIS2_PLACEMENT_3D ( 'NONE', #24, #206, #1 ) ;
#256 = FACE_OUTER_BOUND ( 'NONE', #204, .T. ) ;
#257 = ORIENTED_EDGE ( 'NONE', *, *, #71, .T. ) ;
#258 = CIRCLE ( 'NONE', #105, 4.299999999999998934 ) ;
#259 =( LENGTH_UNIT ( ) NAMED_UNIT ( * ) SI_UNIT ( .MILLI., .METRE. ) );
#260 = EDGE_LOOP ( 'NONE', ( #60, #107, #252, #86 ) ) ;
#261 = EDGE_CURVE ( 'NONE', #64, #21, #122, .T. ) ;
#262 = AXIS2_PLACEMENT_3D ( 'NONE', #74, #161, #287 ) ;
#263 = DIRECTION ( 'NONE',  ( 1.000000000000000000, 0.000000000000000000, 0.000000000000000000 ) ) ;
#264 = DIRECTION ( 'NONE',  ( 1.000000000000000000, 0.000000000000000000, 0.000000000000000000 ) ) ;
#265 = AXIS2_PLACEMENT_3D ( 'NONE', #234, #137, #111 ) ;
#266 = APPROVAL ( #144, 'NEURÈENÝ' ) ;
#267 = DIRECTION ( 'NONE',  ( 1.224646799147353207E-16, 1.000000000000000000, -0.000000000000000000 ) ) ;
#268 = COORDINATED_UNIVERSAL_TIME_OFFSET ( 1, 0, .AHEAD. ) ;
#269 = DIRECTION ( 'NONE',  ( 1.000000000000000000, 0.000000000000000000, 0.000000000000000000 ) ) ;
#270 = DATE_AND_TIME ( #119, #248 ) ;
#271 = ADVANCED_FACE ( 'NONE', ( #57, #44 ), #201, .T. ) ;
#272 = ORGANIZATION ( 'NEURÈENÝ', 'NEURÈENÝ', '' ) ;
#273 = PRODUCT_DEFINITION_SHAPE ( 'NONE', 'NONE',  #281 ) ;
#274 = APPROVAL_STATUS ( 'not_yet_approved' ) ;
#275 = CARTESIAN_POINT ( 'NONE',  ( 0.000000000000000000, 0.000000000000000000, 0.000000000000000000 ) ) ;
#276 = FACE_OUTER_BOUND ( 'NONE', #260, .T. ) ;
#277 = ADVANCED_FACE ( 'NONE', ( #106 ), #3, .F. ) ;
#278 = ORIENTED_EDGE ( 'NONE', *, *, #9, .F. ) ;
#279 = VERTEX_POINT ( 'NONE', #124 ) ;
#280 = ORIENTED_EDGE ( 'NONE', *, *, #43, .F. ) ;
#281 = PRODUCT_DEFINITION ( 'NEZNÁMÝ', '', #89, #31 ) ;
#282 = EDGE_LOOP ( 'NONE', ( #278, #109 ) ) ;
#283 = CC_DESIGN_SECURITY_CLASSIFICATION ( #45, ( #89 ) ) ;
#284 = LINE ( 'NONE', #226, #200 ) ;
#285 = EDGE_LOOP ( 'NONE', ( #22, #84, #58, #173 ) ) ;
#286 = CARTESIAN_POINT ( 'NONE',  ( -4.099999999999999645, 0.000000000000000000, 505.0000000000000000 ) ) ;
#287 = DIRECTION ( 'NONE',  ( 1.000000000000000000, 0.000000000000000000, 0.000000000000000000 ) ) ;
#288 = DATE_AND_TIME ( #163, #128 ) ;
#289 = COORDINATED_UNIVERSAL_TIME_OFFSET ( 1, 0, .AHEAD. ) ;
#290 = CARTESIAN_POINT ( 'NONE',  ( 4.099999999999999645, 5.021051876504147385E-16, 5.199999999999982414 ) ) ;
#291 = ADVANCED_FACE ( 'NONE', ( #256 ), #75, .F. ) ;
#292 = PERSON_AND_ORGANIZATION ( #112, #272 ) ;
#293 = CARTESIAN_POINT ( 'NONE',  ( 0.000000000000000000, 0.000000000000000000, 505.0000000000000000 ) ) ;
#294 = APPLICATION_PROTOCOL_DEFINITION ( 'international standard', 'config_control_design', 1994, #129 ) ;
#295 = AXIS2_PLACEMENT_3D ( 'NONE', #131, #301, #83 ) ;
#296 = DIRECTION ( 'NONE',  ( -0.000000000000000000, -0.000000000000000000, -1.000000000000000000 ) ) ;
#297 = CC_DESIGN_PERSON_AND_ORGANIZATION_ASSIGNMENT ( #292, #117, ( #281 ) ) ;
#298 = ORIENTED_EDGE ( 'NONE', *, *, #133, .F. ) ;
#299 = DIRECTION ( 'NONE',  ( 1.000000000000000000, 0.000000000000000000, 0.000000000000000000 ) ) ;
#300 = ORIENTED_EDGE ( 'NONE', *, *, #59, .F. ) ;
#301 = DIRECTION ( 'NONE',  ( 0.000000000000000000, 0.000000000000000000, 1.000000000000000000 ) ) ;
#302 = VERTEX_POINT ( 'NONE', #175 ) ;
#303 = ADVANCED_FACE ( 'NONE', ( #61 ), #127, .T. ) ;
#304 = ORIENTED_EDGE ( 'NONE', *, *, #167, .F. ) ;
#305 = AXIS2_PLACEMENT_3D ( 'NONE', #235, #29, #210 ) ;
#306 = DIRECTION ( 'NONE',  ( 0.000000000000000000, 0.000000000000000000, -1.000000000000000000 ) ) ;
#307 = FACE_OUTER_BOUND ( 'NONE', #202, .T. ) ;
ENDSEC;
END-ISO-10303-21;
