ISO-10303-21;
HEADER;
FILE_DESCRIPTION (( 'STEP AP203' ),
    '1' );
FILE_NAME ('8549.STEP',
    '2022-06-20T09:57:58',
    ( '' ),
    ( '' ),
    'SwSTEP 2.0',
    'SolidWorks 2019',
    '' );
FILE_SCHEMA (( 'CONFIG_CONTROL_DESIGN' ));
ENDSEC;

DATA;
#1 = CYLINDRICAL_SURFACE ( 'NONE', #3, 6.000000000000000888 ) ;
#2 = LINE ( 'NONE', #147, #83 ) ;
#3 = AXIS2_PLACEMENT_3D ( 'NONE', #241, #191, #37 ) ;
#4 = APPROVAL ( #153, 'NEURÈENÝ' ) ;
#5 = DIRECTION ( 'NONE',  ( 1.000000000000000000, 0.000000000000000000, 0.000000000000000000 ) ) ;
#6 = COORDINATED_UNIVERSAL_TIME_OFFSET ( 1, 0, .AHEAD. ) ;
#7 = AXIS2_PLACEMENT_3D ( 'NONE', #141, #103, #58 ) ;
#8 = DIRECTION ( 'NONE',  ( 0.000000000000000000, 0.000000000000000000, 1.000000000000000000 ) ) ;
#9 = LOCAL_TIME ( 11, 57, 58.00000000000000000, #276 ) ;
#10 = PRODUCT_DEFINITION ( 'NEZNÁMÝ', '', #248, #237 ) ;
#11 = SECURITY_CLASSIFICATION_LEVEL ( 'unclassified' ) ;
#12 = VERTEX_POINT ( 'NONE', #160 ) ;
#13 = CALENDAR_DATE ( 2022, 20, 6 ) ;
#14 = ORIENTED_EDGE ( 'NONE', *, *, #180, .T. ) ;
#15 = CIRCLE ( 'NONE', #186, 3.200000000000000622 ) ;
#16 = PERSON_AND_ORGANIZATION ( #303, #36 ) ;
#17 = VERTEX_POINT ( 'NONE', #122 ) ;
#18 = PERSON_AND_ORGANIZATION ( #303, #36 ) ;
#19 = CC_DESIGN_PERSON_AND_ORGANIZATION_ASSIGNMENT ( #114, #223, ( #61 ) ) ;
#20 = DIRECTION ( 'NONE',  ( -0.000000000000000000, -0.000000000000000000, -1.000000000000000000 ) ) ;
#21 = DIRECTION ( 'NONE',  ( 1.000000000000000000, 0.000000000000000000, -0.000000000000000000 ) ) ;
#22 = PRODUCT_RELATED_PRODUCT_CATEGORY ( 'detail', '', ( #61 ) ) ;
#23 = AXIS2_PLACEMENT_3D ( 'NONE', #304, #20, #118 ) ;
#24 = FACE_BOUND ( 'NONE', #298, .T. ) ;
#25 = ORIENTED_EDGE ( 'NONE', *, *, #46, .F. ) ;
#26 = DIRECTION ( 'NONE',  ( 1.000000000000000000, 0.000000000000000000, 0.000000000000000000 ) ) ;
#27 = EDGE_CURVE ( 'NONE', #275, #253, #100, .T. ) ;
#28 = CIRCLE ( 'NONE', #192, 3.000000000000000444 ) ;
#29 = CC_DESIGN_APPROVAL ( #54, ( #248 ) ) ;
#30 = CARTESIAN_POINT ( 'NONE',  ( 0.000000000000000000, 0.000000000000000000, 5.000000000000000000 ) ) ;
#31 = CARTESIAN_POINT ( 'NONE',  ( 0.000000000000000000, 0.000000000000000000, 0.000000000000000000 ) ) ;
#32 = CARTESIAN_POINT ( 'NONE',  ( -6.000000000000000888, 0.000000000000000000, 5.000000000000000000 ) ) ;
#33 = CARTESIAN_POINT ( 'NONE',  ( 3.000000000000000444, 3.673940397442060361E-16, 405.0000000000000000 ) ) ;
#34 = CIRCLE ( 'NONE', #242, 6.000000000000000888 ) ;
#35 = DIRECTION ( 'NONE',  ( 1.224646799147353207E-16, 1.000000000000000000, -0.000000000000000000 ) ) ;
#36 = ORGANIZATION ( 'NEURÈENÝ', 'NEURÈENÝ', '' ) ;
#37 = DIRECTION ( 'NONE',  ( -1.000000000000000000, 0.000000000000000000, 0.000000000000000000 ) ) ;
#38 = PERSON_AND_ORGANIZATION ( #303, #36 ) ;
#39 = APPROVAL_ROLE ( '' ) ;
#40 = CIRCLE ( 'NONE', #280, 3.200000000000000622 ) ;
#41 = ORIENTED_EDGE ( 'NONE', *, *, #173, .F. ) ;
#42 = CALENDAR_DATE ( 2022, 20, 6 ) ;
#43 = EDGE_LOOP ( 'NONE', ( #45, #135, #269, #25 ) ) ;
#44 = PERSON_AND_ORGANIZATION ( #303, #36 ) ;
#45 = ORIENTED_EDGE ( 'NONE', *, *, #180, .F. ) ;
#46 = EDGE_CURVE ( 'NONE', #112, #293, #56, .T. ) ;
#47 = CARTESIAN_POINT ( 'NONE',  ( 0.000000000000000000, 0.000000000000000000, 405.0000000000000000 ) ) ;
#48 = EDGE_LOOP ( 'NONE', ( #89, #251 ) ) ;
#49 = DIRECTION ( 'NONE',  ( -0.000000000000000000, -0.000000000000000000, -1.000000000000000000 ) ) ;
#50 = APPROVAL_PERSON_ORGANIZATION ( #63, #4, #290 ) ;
#51 = FACE_OUTER_BOUND ( 'NONE', #97, .T. ) ;
#52 = CARTESIAN_POINT ( 'NONE',  ( 6.000000000000000888, 7.347880794884120722E-16, 0.000000000000000000 ) ) ;
#53 = DIRECTION ( 'NONE',  ( 0.000000000000000000, 0.000000000000000000, 1.000000000000000000 ) ) ;
#54 = APPROVAL ( #111, 'NEURÈENÝ' ) ;
#55 = DIRECTION ( 'NONE',  ( 0.000000000000000000, 0.000000000000000000, 1.000000000000000000 ) ) ;
#56 = CIRCLE ( 'NONE', #217, 0.1999999999999996503 ) ;
#57 = APPROVAL_PERSON_ORGANIZATION ( #201, #154, #171 ) ;
#58 = DIRECTION ( 'NONE',  ( 1.000000000000000000, 0.000000000000000000, 0.000000000000000000 ) ) ;
#59 = EDGE_CURVE ( 'NONE', #12, #250, #190, .T. ) ;
#60 = AXIS2_PLACEMENT_3D ( 'NONE', #305, #53, #172 ) ;
#61 = PRODUCT ( '8549', '8549', '', ( #197 ) ) ;
#62 = CARTESIAN_POINT ( 'NONE',  ( 6.000000000000000888, 7.347880794884120722E-16, 5.000000000000000000 ) ) ;
#63 = PERSON_AND_ORGANIZATION ( #303, #36 ) ;
#64 = APPLICATION_PROTOCOL_DEFINITION ( 'international standard', 'config_control_design', 1994, #306 ) ;
#65 = ORIENTED_EDGE ( 'NONE', *, *, #219, .T. ) ;
#66 = CIRCLE ( 'NONE', #255, 3.000000000000000444 ) ;
#67 = SHAPE_DEFINITION_REPRESENTATION ( #273, #91 ) ;
#68 = EDGE_LOOP ( 'NONE', ( #247, #182 ) ) ;
#69 = EDGE_CURVE ( 'NONE', #250, #12, #66, .T. ) ;
#70 = ORIENTED_EDGE ( 'NONE', *, *, #235, .F. ) ;
#71 = DIRECTION ( 'NONE',  ( 0.000000000000000000, 0.000000000000000000, 1.000000000000000000 ) ) ;
#72 = VERTEX_POINT ( 'NONE', #257 ) ;
#73 = AXIS2_PLACEMENT_3D ( 'NONE', #109, #267, #295 ) ;
#74 = CC_DESIGN_PERSON_AND_ORGANIZATION_ASSIGNMENT ( #16, #174, ( #248 ) ) ;
#75 = CARTESIAN_POINT ( 'NONE',  ( 0.000000000000000000, 0.000000000000000000, 5.199999999999982414 ) ) ;
#76 = EDGE_LOOP ( 'NONE', ( #137, #65, #159, #224 ) ) ;
#77 = FACE_OUTER_BOUND ( 'NONE', #48, .T. ) ;
#78 = DIRECTION ( 'NONE',  ( 0.000000000000000000, 0.000000000000000000, 1.000000000000000000 ) ) ;
#79 = DIRECTION ( 'NONE',  ( 1.000000000000000000, 0.000000000000000000, 0.000000000000000000 ) ) ;
#80 = CC_DESIGN_PERSON_AND_ORGANIZATION_ASSIGNMENT ( #18, #204, ( #248 ) ) ;
#81 = DIRECTION ( 'NONE',  ( -0.000000000000000000, -0.000000000000000000, -1.000000000000000000 ) ) ;
#82 = AXIS2_PLACEMENT_3D ( 'NONE', #209, #78, #162 ) ;
#83 = VECTOR ( 'NONE', #148, 1000.000000000000000 ) ;
#84 = CC_DESIGN_DATE_AND_TIME_ASSIGNMENT ( #202, #289, ( #10 ) ) ;
#85 = PLANE ( 'NONE',  #130 ) ;
#86 = DIRECTION ( 'NONE',  ( 1.000000000000000000, 0.000000000000000000, 0.000000000000000000 ) ) ;
#87 = DATE_AND_TIME ( #13, #243 ) ;
#88 = PERSON_AND_ORGANIZATION_ROLE ( 'creator' ) ;
#89 = ORIENTED_EDGE ( 'NONE', *, *, #127, .F. ) ;
#90 = DATE_AND_TIME ( #42, #218 ) ;
#91 = ADVANCED_BREP_SHAPE_REPRESENTATION ( '8549', ( #117, #73 ), #178 ) ;
#92 = ORIENTED_EDGE ( 'NONE', *, *, #278, .F. ) ;
#93 = VECTOR ( 'NONE', #124, 1000.000000000000000 ) ;
#94 = ORIENTED_EDGE ( 'NONE', *, *, #69, .F. ) ;
#95 = PERSON_AND_ORGANIZATION_ROLE ( 'classification_officer' ) ;
#96 = VERTEX_POINT ( 'NONE', #52 ) ;
#97 = EDGE_LOOP ( 'NONE', ( #277, #92, #179, #203 ) ) ;
#98 = ORIENTED_EDGE ( 'NONE', *, *, #278, .T. ) ;
#99 = SECURITY_CLASSIFICATION ( '', '', #11 ) ;
#100 = LINE ( 'NONE', #211, #149 ) ;
#101 = CLOSED_SHELL ( 'NONE', ( #240, #164, #301, #288, #205, #132, #183, #150, #196 ) ) ;
#102 = EDGE_CURVE ( 'NONE', #293, #72, #15, .T. ) ;
#103 = DIRECTION ( 'NONE',  ( 0.000000000000000000, 0.000000000000000000, 1.000000000000000000 ) ) ;
#104 = CARTESIAN_POINT ( 'NONE',  ( 0.000000000000000000, 0.000000000000000000, 5.000000000000000000 ) ) ;
#105 = AXIS2_PLACEMENT_3D ( 'NONE', #31, #8, #198 ) ;
#106 = FACE_OUTER_BOUND ( 'NONE', #155, .T. ) ;
#107 =( NAMED_UNIT ( * ) SI_UNIT ( $, .STERADIAN. ) SOLID_ANGLE_UNIT ( ) );
#108 = LINE ( 'NONE', #62, #93 ) ;
#109 = CARTESIAN_POINT ( 'NONE',  ( 0.000000000000000000, 0.000000000000000000, 0.000000000000000000 ) ) ;
#110 = ORIENTED_EDGE ( 'NONE', *, *, #307, .T. ) ;
#111 = APPROVAL_STATUS ( 'not_yet_approved' ) ;
#112 = VERTEX_POINT ( 'NONE', #163 ) ;
#113 = EDGE_CURVE ( 'NONE', #275, #297, #206, .T. ) ;
#114 = PERSON_AND_ORGANIZATION ( #303, #36 ) ;
#115 = ORIENTED_EDGE ( 'NONE', *, *, #173, .T. ) ;
#116 = CIRCLE ( 'NONE', #283, 0.2000000000000000944 ) ;
#117 = MANIFOLD_SOLID_BREP ( 'Zaoblit1', #101 ) ;
#118 = DIRECTION ( 'NONE',  ( -1.000000000000000000, 0.000000000000000000, 0.000000000000000000 ) ) ;
#119 = FACE_OUTER_BOUND ( 'NONE', #175, .T. ) ;
#120 = LOCAL_TIME ( 11, 57, 58.00000000000000000, #292 ) ;
#121 = LINE ( 'NONE', #254, #139 ) ;
#122 = CARTESIAN_POINT ( 'NONE',  ( -3.000000000000000444, 0.000000000000000000, 5.199999999999982414 ) ) ;
#123 = DIRECTION ( 'NONE',  ( -0.000000000000000000, -0.000000000000000000, -1.000000000000000000 ) ) ;
#124 = DIRECTION ( 'NONE',  ( -0.000000000000000000, -0.000000000000000000, -1.000000000000000000 ) ) ;
#125 = TOROIDAL_SURFACE ( 'NONE', #294, 3.200000000000000622, 0.2000000000000000111 ) ;
#126 = CARTESIAN_POINT ( 'NONE',  ( 0.000000000000000000, 0.000000000000000000, 5.000000000000000000 ) ) ;
#127 = EDGE_CURVE ( 'NONE', #253, #96, #236, .T. ) ;
#128 =( NAMED_UNIT ( * ) PLANE_ANGLE_UNIT ( ) SI_UNIT ( $, .RADIAN. ) );
#129 = APPROVAL_DATE_TIME ( #87, #54 ) ;
#130 = AXIS2_PLACEMENT_3D ( 'NONE', #104, #262, #170 ) ;
#131 = CALENDAR_DATE ( 2022, 20, 6 ) ;
#132 = ADVANCED_FACE ( 'NONE', ( #77 ), #188, .F. ) ;
#133 = ORIENTED_EDGE ( 'NONE', *, *, #59, .T. ) ;
#134 = PERSON_AND_ORGANIZATION ( #303, #36 ) ;
#135 = ORIENTED_EDGE ( 'NONE', *, *, #258, .T. ) ;
#136 = AXIS2_PLACEMENT_3D ( 'NONE', #138, #71, #21 ) ;
#137 = ORIENTED_EDGE ( 'NONE', *, *, #144, .F. ) ;
#138 = CARTESIAN_POINT ( 'NONE',  ( 0.000000000000000000, 0.000000000000000000, 0.000000000000000000 ) ) ;
#139 = VECTOR ( 'NONE', #49, 1000.000000000000000 ) ;
#140 = EDGE_LOOP ( 'NONE', ( #133, #214 ) ) ;
#141 = CARTESIAN_POINT ( 'NONE',  ( 0.000000000000000000, 0.000000000000000000, 5.199999999999982414 ) ) ;
#142 = CARTESIAN_POINT ( 'NONE',  ( 0.000000000000000000, 0.000000000000000000, 5.000000000000000000 ) ) ;
#143 = DIRECTION ( 'NONE',  ( 1.000000000000000000, 0.000000000000000000, 0.000000000000000000 ) ) ;
#144 = EDGE_CURVE ( 'NONE', #297, #275, #169, .T. ) ;
#145 = CYLINDRICAL_SURFACE ( 'NONE', #207, 6.000000000000000888 ) ;
#146 = CC_DESIGN_APPROVAL ( #4, ( #10 ) ) ;
#147 = CARTESIAN_POINT ( 'NONE',  ( -3.000000000000000444, 0.000000000000000000, 405.0000000000000000 ) ) ;
#148 = DIRECTION ( 'NONE',  ( -0.000000000000000000, -0.000000000000000000, -1.000000000000000000 ) ) ;
#149 = VECTOR ( 'NONE', #232, 1000.000000000000000 ) ;
#150 = ADVANCED_FACE ( 'NONE', ( #187 ), #233, .T. ) ;
#151 = CARTESIAN_POINT ( 'NONE',  ( 3.200000000000000622, 0.000000000000000000, 4.999999999999991118 ) ) ;
#152 = APPROVAL_DATE_TIME ( #176, #154 ) ;
#153 = APPROVAL_STATUS ( 'not_yet_approved' ) ;
#154 = APPROVAL ( #271, 'NEURÈENÝ' ) ;
#155 = EDGE_LOOP ( 'NONE', ( #228, #296, #279, #225 ) ) ;
#156 = EDGE_LOOP ( 'NONE', ( #94, #115, #98, #70 ) ) ;
#157 = ORIENTED_EDGE ( 'NONE', *, *, #235, .T. ) ;
#158 = CARTESIAN_POINT ( 'NONE',  ( 0.000000000000000000, 0.000000000000000000, 5.000000000000000000 ) ) ;
#159 = ORIENTED_EDGE ( 'NONE', *, *, #249, .T. ) ;
#160 = CARTESIAN_POINT ( 'NONE',  ( -3.000000000000000444, 0.000000000000000000, 405.0000000000000000 ) ) ;
#161 = FACE_OUTER_BOUND ( 'NONE', #156, .T. ) ;
#162 = DIRECTION ( 'NONE',  ( 1.000000000000000000, 0.000000000000000000, 0.000000000000000000 ) ) ;
#163 = CARTESIAN_POINT ( 'NONE',  ( 3.000000000000000444, 3.673940397442060361E-16, 5.199999999999982414 ) ) ;
#164 = ADVANCED_FACE ( 'NONE', ( #161 ), #227, .T. ) ;
#165 = DIRECTION ( 'NONE',  ( -1.000000000000000000, 1.224646799147353207E-16, 0.000000000000000000 ) ) ;
#166 = DIRECTION ( 'NONE',  ( 0.000000000000000000, 0.000000000000000000, 1.000000000000000000 ) ) ;
#167 = CC_DESIGN_APPROVAL ( #154, ( #99 ) ) ;
#168 = DIRECTION ( 'NONE',  ( 0.000000000000000000, 0.000000000000000000, 1.000000000000000000 ) ) ;
#169 = CIRCLE ( 'NONE', #270, 6.000000000000000888 ) ;
#170 = DIRECTION ( 'NONE',  ( 1.000000000000000000, 0.000000000000000000, -0.000000000000000000 ) ) ;
#171 = APPROVAL_ROLE ( '' ) ;
#172 = DIRECTION ( 'NONE',  ( 1.000000000000000000, 0.000000000000000000, 0.000000000000000000 ) ) ;
#173 = EDGE_CURVE ( 'NONE', #250, #112, #121, .T. ) ;
#174 = PERSON_AND_ORGANIZATION_ROLE ( 'design_supplier' ) ;
#175 = EDGE_LOOP ( 'NONE', ( #41, #291, #157, #14 ) ) ;
#176 = DATE_AND_TIME ( #274, #120 ) ;
#177 = AXIS2_PLACEMENT_3D ( 'NONE', #256, #208, #184 ) ;
#178 =( GEOMETRIC_REPRESENTATION_CONTEXT ( 3 ) GLOBAL_UNCERTAINTY_ASSIGNED_CONTEXT ( ( #212 ) ) GLOBAL_UNIT_ASSIGNED_CONTEXT ( ( #260, #128, #107 ) ) REPRESENTATION_CONTEXT ( 'NONE', 'WORKASPACE' ) );
#179 = ORIENTED_EDGE ( 'NONE', *, *, #46, .T. ) ;
#180 = EDGE_CURVE ( 'NONE', #17, #112, #28, .T. ) ;
#181 = CIRCLE ( 'NONE', #193, 3.000000000000000444 ) ;
#182 = ORIENTED_EDGE ( 'NONE', *, *, #144, .T. ) ;
#183 = ADVANCED_FACE ( 'NONE', ( #119 ), #231, .T. ) ;
#184 = DIRECTION ( 'NONE',  ( -1.000000000000000000, 0.000000000000000000, 0.000000000000000000 ) ) ;
#185 = CARTESIAN_POINT ( 'NONE',  ( 3.200000000000000622, 0.000000000000000000, 5.199999999999982414 ) ) ;
#186 = AXIS2_PLACEMENT_3D ( 'NONE', #142, #234, #26 ) ;
#187 = FACE_OUTER_BOUND ( 'NONE', #140, .T. ) ;
#188 = PLANE ( 'NONE',  #136 ) ;
#189 = CARTESIAN_POINT ( 'NONE',  ( 0.000000000000000000, 0.000000000000000000, 5.199999999999982414 ) ) ;
#190 = CIRCLE ( 'NONE', #82, 3.000000000000000444 ) ;
#191 = DIRECTION ( 'NONE',  ( -0.000000000000000000, -0.000000000000000000, -1.000000000000000000 ) ) ;
#192 = AXIS2_PLACEMENT_3D ( 'NONE', #75, #210, #79 ) ;
#193 = AXIS2_PLACEMENT_3D ( 'NONE', #259, #166, #263 ) ;
#194 = FACE_OUTER_BOUND ( 'NONE', #43, .T. ) ;
#195 = APPLICATION_PROTOCOL_DEFINITION ( 'international standard', 'config_control_design', 1994, #200 ) ;
#196 = ADVANCED_FACE ( 'NONE', ( #51 ), #264, .F. ) ;
#197 = MECHANICAL_CONTEXT ( 'NONE', #200, 'mechanical' ) ;
#198 = DIRECTION ( 'NONE',  ( 1.000000000000000000, 0.000000000000000000, 0.000000000000000000 ) ) ;
#199 = ORIENTED_EDGE ( 'NONE', *, *, #102, .T. ) ;
#200 = APPLICATION_CONTEXT ( 'configuration controlled 3d designs of mechanical parts and assemblies' ) ;
#201 = PERSON_AND_ORGANIZATION ( #303, #36 ) ;
#202 = DATE_AND_TIME ( #221, #9 ) ;
#203 = ORIENTED_EDGE ( 'NONE', *, *, #307, .F. ) ;
#204 = PERSON_AND_ORGANIZATION_ROLE ( 'creator' ) ;
#205 = ADVANCED_FACE ( 'NONE', ( #24, #216 ), #85, .T. ) ;
#206 = CIRCLE ( 'NONE', #60, 6.000000000000000888 ) ;
#207 = AXIS2_PLACEMENT_3D ( 'NONE', #30, #123, #215 ) ;
#208 = DIRECTION ( 'NONE',  ( -0.000000000000000000, -0.000000000000000000, -1.000000000000000000 ) ) ;
#209 = CARTESIAN_POINT ( 'NONE',  ( 0.000000000000000000, 0.000000000000000000, 405.0000000000000000 ) ) ;
#210 = DIRECTION ( 'NONE',  ( 0.000000000000000000, 0.000000000000000000, 1.000000000000000000 ) ) ;
#211 = CARTESIAN_POINT ( 'NONE',  ( -6.000000000000000888, 0.000000000000000000, 5.000000000000000000 ) ) ;
#212 = UNCERTAINTY_MEASURE_WITH_UNIT (LENGTH_MEASURE( 1.000000000000000082E-05 ), #260, 'distance_accuracy_value', 'NONE');
#213 = CC_DESIGN_DATE_AND_TIME_ASSIGNMENT ( #90, #245, ( #99 ) ) ;
#214 = ORIENTED_EDGE ( 'NONE', *, *, #69, .T. ) ;
#215 = DIRECTION ( 'NONE',  ( -1.000000000000000000, 0.000000000000000000, 0.000000000000000000 ) ) ;
#216 = FACE_OUTER_BOUND ( 'NONE', #68, .T. ) ;
#217 = AXIS2_PLACEMENT_3D ( 'NONE', #185, #302, #229 ) ;
#218 = LOCAL_TIME ( 11, 57, 58.00000000000000000, #226 ) ;
#219 = EDGE_CURVE ( 'NONE', #297, #96, #108, .T. ) ;
#220 = AXIS2_PLACEMENT_3D ( 'NONE', #47, #299, #281 ) ;
#221 = CALENDAR_DATE ( 2022, 20, 6 ) ;
#222 = APPROVAL_DATE_TIME ( #246, #4 ) ;
#223 = PERSON_AND_ORGANIZATION_ROLE ( 'design_owner' ) ;
#224 = ORIENTED_EDGE ( 'NONE', *, *, #27, .F. ) ;
#225 = ORIENTED_EDGE ( 'NONE', *, *, #127, .T. ) ;
#226 = COORDINATED_UNIVERSAL_TIME_OFFSET ( 1, 0, .AHEAD. ) ;
#227 = CYLINDRICAL_SURFACE ( 'NONE', #23, 3.000000000000000444 ) ;
#228 = ORIENTED_EDGE ( 'NONE', *, *, #219, .F. ) ;
#229 = DIRECTION ( 'NONE',  ( 0.000000000000000000, 0.000000000000000000, -1.000000000000000000 ) ) ;
#230 = APPROVAL_PERSON_ORGANIZATION ( #134, #54, #39 ) ;
#231 = CYLINDRICAL_SURFACE ( 'NONE', #177, 3.000000000000000444 ) ;
#232 = DIRECTION ( 'NONE',  ( -0.000000000000000000, -0.000000000000000000, -1.000000000000000000 ) ) ;
#233 = PLANE ( 'NONE',  #220 ) ;
#234 = DIRECTION ( 'NONE',  ( -0.000000000000000000, -0.000000000000000000, -1.000000000000000000 ) ) ;
#235 = EDGE_CURVE ( 'NONE', #12, #17, #2, .T. ) ;
#236 = CIRCLE ( 'NONE', #105, 6.000000000000000888 ) ;
#237 = DESIGN_CONTEXT ( 'detailed design', #306, 'design' ) ;
#238 = CARTESIAN_POINT ( 'NONE',  ( 0.000000000000000000, 0.000000000000000000, 0.000000000000000000 ) ) ;
#239 = DIRECTION ( 'NONE',  ( 1.000000000000000000, 0.000000000000000000, 0.000000000000000000 ) ) ;
#240 = ADVANCED_FACE ( 'NONE', ( #194 ), #125, .F. ) ;
#241 = CARTESIAN_POINT ( 'NONE',  ( 0.000000000000000000, 0.000000000000000000, 5.000000000000000000 ) ) ;
#242 = AXIS2_PLACEMENT_3D ( 'NONE', #238, #168, #239 ) ;
#243 = LOCAL_TIME ( 11, 57, 58.00000000000000000, #6 ) ;
#244 = FACE_OUTER_BOUND ( 'NONE', #76, .T. ) ;
#245 = DATE_TIME_ROLE ( 'classification_date' ) ;
#246 = DATE_AND_TIME ( #131, #265 ) ;
#247 = ORIENTED_EDGE ( 'NONE', *, *, #113, .T. ) ;
#248 = PRODUCT_DEFINITION_FORMATION_WITH_SPECIFIED_SOURCE ( 'LIBOVOLNÝ', '', #61, .NOT_KNOWN. ) ;
#249 = EDGE_CURVE ( 'NONE', #96, #253, #34, .T. ) ;
#250 = VERTEX_POINT ( 'NONE', #33 ) ;
#251 = ORIENTED_EDGE ( 'NONE', *, *, #249, .F. ) ;
#252 = DIRECTION ( 'NONE',  ( 1.000000000000000000, 0.000000000000000000, 0.000000000000000000 ) ) ;
#253 = VERTEX_POINT ( 'NONE', #286 ) ;
#254 = CARTESIAN_POINT ( 'NONE',  ( 3.000000000000000444, 3.673940397442060361E-16, 405.0000000000000000 ) ) ;
#255 = AXIS2_PLACEMENT_3D ( 'NONE', #300, #284, #143 ) ;
#256 = CARTESIAN_POINT ( 'NONE',  ( 0.000000000000000000, 0.000000000000000000, 405.0000000000000000 ) ) ;
#257 = CARTESIAN_POINT ( 'NONE',  ( -3.200000000000000622, 3.918869757271530953E-16, 4.999999999999991118 ) ) ;
#258 = EDGE_CURVE ( 'NONE', #17, #72, #116, .T. ) ;
#259 = CARTESIAN_POINT ( 'NONE',  ( 0.000000000000000000, 0.000000000000000000, 5.199999999999982414 ) ) ;
#260 =( LENGTH_UNIT ( ) NAMED_UNIT ( * ) SI_UNIT ( .MILLI., .METRE. ) );
#261 = CC_DESIGN_SECURITY_CLASSIFICATION ( #99, ( #248 ) ) ;
#262 = DIRECTION ( 'NONE',  ( 0.000000000000000000, 0.000000000000000000, 1.000000000000000000 ) ) ;
#263 = DIRECTION ( 'NONE',  ( 1.000000000000000000, 0.000000000000000000, 0.000000000000000000 ) ) ;
#264 = TOROIDAL_SURFACE ( 'NONE', #7, 3.200000000000000622, 0.2000000000000000111 ) ;
#265 = LOCAL_TIME ( 11, 57, 58.00000000000000000, #268 ) ;
#266 = CC_DESIGN_PERSON_AND_ORGANIZATION_ASSIGNMENT ( #44, #95, ( #99 ) ) ;
#267 = DIRECTION ( 'NONE',  ( 0.000000000000000000, 0.000000000000000000, 1.000000000000000000 ) ) ;
#268 = COORDINATED_UNIVERSAL_TIME_OFFSET ( 1, 0, .AHEAD. ) ;
#269 = ORIENTED_EDGE ( 'NONE', *, *, #102, .F. ) ;
#270 = AXIS2_PLACEMENT_3D ( 'NONE', #158, #282, #252 ) ;
#271 = APPROVAL_STATUS ( 'not_yet_approved' ) ;
#272 = CC_DESIGN_PERSON_AND_ORGANIZATION_ASSIGNMENT ( #38, #88, ( #10 ) ) ;
#273 = PRODUCT_DEFINITION_SHAPE ( 'NONE', 'NONE',  #10 ) ;
#274 = CALENDAR_DATE ( 2022, 20, 6 ) ;
#275 = VERTEX_POINT ( 'NONE', #32 ) ;
#276 = COORDINATED_UNIVERSAL_TIME_OFFSET ( 1, 0, .AHEAD. ) ;
#277 = ORIENTED_EDGE ( 'NONE', *, *, #258, .F. ) ;
#278 = EDGE_CURVE ( 'NONE', #112, #17, #181, .T. ) ;
#279 = ORIENTED_EDGE ( 'NONE', *, *, #27, .T. ) ;
#280 = AXIS2_PLACEMENT_3D ( 'NONE', #126, #81, #5 ) ;
#281 = DIRECTION ( 'NONE',  ( 1.000000000000000000, 0.000000000000000000, -0.000000000000000000 ) ) ;
#282 = DIRECTION ( 'NONE',  ( 0.000000000000000000, 0.000000000000000000, 1.000000000000000000 ) ) ;
#283 = AXIS2_PLACEMENT_3D ( 'NONE', #285, #35, #165 ) ;
#284 = DIRECTION ( 'NONE',  ( 0.000000000000000000, 0.000000000000000000, 1.000000000000000000 ) ) ;
#285 = CARTESIAN_POINT ( 'NONE',  ( -3.200000000000000622, 3.918869757271530953E-16, 5.199999999999982414 ) ) ;
#286 = CARTESIAN_POINT ( 'NONE',  ( -6.000000000000000888, 0.000000000000000000, 0.000000000000000000 ) ) ;
#287 = CARTESIAN_POINT ( 'NONE',  ( 6.000000000000000888, 7.347880794884120722E-16, 5.000000000000000000 ) ) ;
#288 = ADVANCED_FACE ( 'NONE', ( #106 ), #145, .T. ) ;
#289 = DATE_TIME_ROLE ( 'creation_date' ) ;
#290 = APPROVAL_ROLE ( '' ) ;
#291 = ORIENTED_EDGE ( 'NONE', *, *, #59, .F. ) ;
#292 = COORDINATED_UNIVERSAL_TIME_OFFSET ( 1, 0, .AHEAD. ) ;
#293 = VERTEX_POINT ( 'NONE', #151 ) ;
#294 = AXIS2_PLACEMENT_3D ( 'NONE', #189, #55, #86 ) ;
#295 = DIRECTION ( 'NONE',  ( 1.000000000000000000, 0.000000000000000000, 0.000000000000000000 ) ) ;
#296 = ORIENTED_EDGE ( 'NONE', *, *, #113, .F. ) ;
#297 = VERTEX_POINT ( 'NONE', #287 ) ;
#298 = EDGE_LOOP ( 'NONE', ( #199, #110 ) ) ;
#299 = DIRECTION ( 'NONE',  ( 0.000000000000000000, 0.000000000000000000, 1.000000000000000000 ) ) ;
#300 = CARTESIAN_POINT ( 'NONE',  ( 0.000000000000000000, 0.000000000000000000, 405.0000000000000000 ) ) ;
#301 = ADVANCED_FACE ( 'NONE', ( #244 ), #1, .T. ) ;
#302 = DIRECTION ( 'NONE',  ( 0.000000000000000000, -1.000000000000000000, 0.000000000000000000 ) ) ;
#303 = PERSON ( 'NEURÈENÝ', 'NEURÈENÝ', 'NEURÈENÝ', ('NEURÈENÝ'), ('NEURÈENÝ'), ('NEURÈENÝ') ) ;
#304 = CARTESIAN_POINT ( 'NONE',  ( 0.000000000000000000, 0.000000000000000000, 405.0000000000000000 ) ) ;
#305 = CARTESIAN_POINT ( 'NONE',  ( 0.000000000000000000, 0.000000000000000000, 5.000000000000000000 ) ) ;
#306 = APPLICATION_CONTEXT ( 'configuration controlled 3d designs of mechanical parts and assemblies' ) ;
#307 = EDGE_CURVE ( 'NONE', #72, #293, #40, .T. ) ;
ENDSEC;
END-ISO-10303-21;
