ISO-10303-21;
HEADER;
FILE_DESCRIPTION (( 'STEP AP203' ),
    '1' );
FILE_NAME ('23a1.STEP',
    '2022-06-20T09:51:24',
    ( '' ),
    ( '' ),
    'SwSTEP 2.0',
    'SolidWorks 2019',
    '' );
FILE_SCHEMA (( 'CONFIG_CONTROL_DESIGN' ));
ENDSEC;

DATA;
#1 = DIRECTION ( 'NONE',  ( 0.000000000000000000, 0.000000000000000000, 1.000000000000000000 ) ) ;
#2 = EDGE_CURVE ( 'NONE', #52, #245, #123, .T. ) ;
#3 = CARTESIAN_POINT ( 'NONE',  ( -6.000000000000000888, 0.000000000000000000, 5.000000000000000000 ) ) ;
#4 = FACE_OUTER_BOUND ( 'NONE', #217, .T. ) ;
#5 = EDGE_LOOP ( 'NONE', ( #172, #271, #80, #215 ) ) ;
#6 = CIRCLE ( 'NONE', #278, 3.750000000000000000 ) ;
#7 = LOCAL_TIME ( 11, 51, 24.00000000000000000, #228 ) ;
#8 = ORIENTED_EDGE ( 'NONE', *, *, #140, .T. ) ;
#9 = APPROVAL ( #130, 'NEURÈENÝ' ) ;
#10 = APPROVAL_PERSON_ORGANIZATION ( #87, #28, #42 ) ;
#11 = DIRECTION ( 'NONE',  ( 1.000000000000000000, 0.000000000000000000, 0.000000000000000000 ) ) ;
#12 = APPROVAL_DATE_TIME ( #225, #167 ) ;
#13 = DIRECTION ( 'NONE',  ( -1.000000000000000000, 0.000000000000000000, 0.000000000000000000 ) ) ;
#14 = DIRECTION ( 'NONE',  ( -0.000000000000000000, -0.000000000000000000, -1.000000000000000000 ) ) ;
#15 = AXIS2_PLACEMENT_3D ( 'NONE', #261, #241, #306 ) ;
#16 = DESIGN_CONTEXT ( 'detailed design', #104, 'design' ) ;
#17 = DIRECTION ( 'NONE',  ( 1.000000000000000000, 0.000000000000000000, 0.000000000000000000 ) ) ;
#18 = PERSON_AND_ORGANIZATION ( #209, #117 ) ;
#19 = CARTESIAN_POINT ( 'NONE',  ( 0.000000000000000000, 0.000000000000000000, 0.000000000000000000 ) ) ;
#20 = CLOSED_SHELL ( 'NONE', ( #50, #290, #84, #119, #147, #195, #216, #89, #185 ) ) ;
#21 = DATE_AND_TIME ( #44, #93 ) ;
#22 = CARTESIAN_POINT ( 'NONE',  ( -6.000000000000000888, 0.000000000000000000, 5.000000000000000000 ) ) ;
#23 = DIRECTION ( 'NONE',  ( 1.000000000000000000, 0.000000000000000000, -0.000000000000000000 ) ) ;
#24 = DIRECTION ( 'NONE',  ( 1.000000000000000000, 0.000000000000000000, 0.000000000000000000 ) ) ;
#25 = EDGE_CURVE ( 'NONE', #128, #122, #262, .T. ) ;
#26 =( NAMED_UNIT ( * ) PLANE_ANGLE_UNIT ( ) SI_UNIT ( $, .RADIAN. ) );
#27 = ORIENTED_EDGE ( 'NONE', *, *, #45, .F. ) ;
#28 = APPROVAL ( #126, 'NEURÈENÝ' ) ;
#29 = AXIS2_PLACEMENT_3D ( 'NONE', #46, #207, #236 ) ;
#30 = ORIENTED_EDGE ( 'NONE', *, *, #129, .T. ) ;
#31 = AXIS2_PLACEMENT_3D ( 'NONE', #111, #61, #134 ) ;
#32 = ORIENTED_EDGE ( 'NONE', *, *, #243, .F. ) ;
#33 = CIRCLE ( 'NONE', #177, 3.750000000000000000 ) ;
#34 = CARTESIAN_POINT ( 'NONE',  ( 6.000000000000000888, 7.347880794884120722E-16, 5.000000000000000000 ) ) ;
#35 = CC_DESIGN_APPROVAL ( #9, ( #100 ) ) ;
#36 = PERSON_AND_ORGANIZATION_ROLE ( 'design_owner' ) ;
#37 = DIRECTION ( 'NONE',  ( 0.000000000000000000, 0.000000000000000000, 1.000000000000000000 ) ) ;
#38 = DIRECTION ( 'NONE',  ( 0.000000000000000000, 0.000000000000000000, 1.000000000000000000 ) ) ;
#39 = EDGE_LOOP ( 'NONE', ( #193, #196, #197, #244 ) ) ;
#40 = DATE_TIME_ROLE ( 'creation_date' ) ;
#41 = DIRECTION ( 'NONE',  ( 0.000000000000000000, 0.000000000000000000, 1.000000000000000000 ) ) ;
#42 = APPROVAL_ROLE ( '' ) ;
#43 = DIRECTION ( 'NONE',  ( -0.000000000000000000, -0.000000000000000000, -1.000000000000000000 ) ) ;
#44 = CALENDAR_DATE ( 2022, 20, 6 ) ;
#45 = EDGE_CURVE ( 'NONE', #269, #131, #76, .T. ) ;
#46 = CARTESIAN_POINT ( 'NONE',  ( 0.000000000000000000, 0.000000000000000000, 5.000000000000000000 ) ) ;
#47 = DIRECTION ( 'NONE',  ( -0.000000000000000000, -0.000000000000000000, -1.000000000000000000 ) ) ;
#48 = FACE_OUTER_BOUND ( 'NONE', #291, .T. ) ;
#49 = EDGE_LOOP ( 'NONE', ( #145, #175 ) ) ;
#50 = ADVANCED_FACE ( 'NONE', ( #283 ), #294, .F. ) ;
#51 = ORIENTED_EDGE ( 'NONE', *, *, #2, .T. ) ;
#52 = VERTEX_POINT ( 'NONE', #106 ) ;
#53 = AXIS2_PLACEMENT_3D ( 'NONE', #229, #14, #203 ) ;
#54 = DIRECTION ( 'NONE',  ( 0.000000000000000000, 0.000000000000000000, 1.000000000000000000 ) ) ;
#55 = PERSON_AND_ORGANIZATION ( #209, #117 ) ;
#56 = TOROIDAL_SURFACE ( 'NONE', #218, 3.949999999999999734, 0.2000000000000000111 ) ;
#57 = CARTESIAN_POINT ( 'NONE',  ( 3.750000000000000000, 4.592425496802573972E-16, 105.0000000000000142 ) ) ;
#58 = FACE_OUTER_BOUND ( 'NONE', #49, .T. ) ;
#59 = CARTESIAN_POINT ( 'NONE',  ( 0.000000000000000000, 0.000000000000000000, 0.000000000000000000 ) ) ;
#60 = AXIS2_PLACEMENT_3D ( 'NONE', #86, #198, #13 ) ;
#61 = DIRECTION ( 'NONE',  ( 0.000000000000000000, 0.000000000000000000, 1.000000000000000000 ) ) ;
#62 = APPLICATION_PROTOCOL_DEFINITION ( 'international standard', 'config_control_design', 1994, #104 ) ;
#63 = DIRECTION ( 'NONE',  ( 0.000000000000000000, -1.000000000000000000, 0.000000000000000000 ) ) ;
#64 = APPROVAL_PERSON_ORGANIZATION ( #82, #9, #133 ) ;
#65 = PERSON_AND_ORGANIZATION_ROLE ( 'classification_officer' ) ;
#66 = DIRECTION ( 'NONE',  ( 0.000000000000000000, 0.000000000000000000, 1.000000000000000000 ) ) ;
#67 = FACE_OUTER_BOUND ( 'NONE', #272, .T. ) ;
#68 = DIRECTION ( 'NONE',  ( 0.000000000000000000, 0.000000000000000000, 1.000000000000000000 ) ) ;
#69 = AXIS2_PLACEMENT_3D ( 'NONE', #19, #1, #186 ) ;
#70 = DIRECTION ( 'NONE',  ( -1.000000000000000000, 0.000000000000000000, 0.000000000000000000 ) ) ;
#71 = AXIS2_PLACEMENT_3D ( 'NONE', #199, #304, #88 ) ;
#72 = EDGE_LOOP ( 'NONE', ( #293, #247 ) ) ;
#73 = CC_DESIGN_DATE_AND_TIME_ASSIGNMENT ( #206, #40, ( #281 ) ) ;
#74 = ORIENTED_EDGE ( 'NONE', *, *, #45, .T. ) ;
#75 = EDGE_LOOP ( 'NONE', ( #170, #296 ) ) ;
#76 = CIRCLE ( 'NONE', #168, 6.000000000000000888 ) ;
#77 = VERTEX_POINT ( 'NONE', #57 ) ;
#78 = AXIS2_PLACEMENT_3D ( 'NONE', #212, #214, #115 ) ;
#79 = LOCAL_TIME ( 11, 51, 24.00000000000000000, #163 ) ;
#80 = ORIENTED_EDGE ( 'NONE', *, *, #298, .T. ) ;
#81 = DIRECTION ( 'NONE',  ( 0.000000000000000000, 0.000000000000000000, -1.000000000000000000 ) ) ;
#82 = PERSON_AND_ORGANIZATION ( #209, #117 ) ;
#83 = LINE ( 'NONE', #91, #194 ) ;
#84 = ADVANCED_FACE ( 'NONE', ( #301 ), #302, .T. ) ;
#85 = CARTESIAN_POINT ( 'NONE',  ( 0.000000000000000000, 0.000000000000000000, 5.000000000000000000 ) ) ;
#86 = CARTESIAN_POINT ( 'NONE',  ( 0.000000000000000000, 0.000000000000000000, 5.000000000000000000 ) ) ;
#87 = PERSON_AND_ORGANIZATION ( #209, #117 ) ;
#88 = DIRECTION ( 'NONE',  ( -1.000000000000000000, 0.000000000000000000, 0.000000000000000000 ) ) ;
#89 = ADVANCED_FACE ( 'NONE', ( #58 ), #249, .T. ) ;
#90 = PERSON_AND_ORGANIZATION ( #209, #117 ) ;
#91 = CARTESIAN_POINT ( 'NONE',  ( 3.750000000000000000, 4.592425496802573972E-16, 105.0000000000000142 ) ) ;
#92 = AXIS2_PLACEMENT_3D ( 'NONE', #211, #142, #70 ) ;
#93 = LOCAL_TIME ( 11, 51, 24.00000000000000000, #155 ) ;
#94 = SECURITY_CLASSIFICATION ( '', '', #183 ) ;
#95 = CARTESIAN_POINT ( 'NONE',  ( -3.750000000000000000, 0.000000000000000000, 105.0000000000000142 ) ) ;
#96 = CARTESIAN_POINT ( 'NONE',  ( 0.000000000000000000, 0.000000000000000000, 105.0000000000000142 ) ) ;
#97 = CC_DESIGN_PERSON_AND_ORGANIZATION_ASSIGNMENT ( #253, #181, ( #281 ) ) ;
#98 = LINE ( 'NONE', #22, #148 ) ;
#99 = ORIENTED_EDGE ( 'NONE', *, *, #125, .F. ) ;
#100 = PRODUCT_DEFINITION_FORMATION_WITH_SPECIFIED_SOURCE ( 'LIBOVOLNÝ', '', #160, .NOT_KNOWN. ) ;
#101 = ORIENTED_EDGE ( 'NONE', *, *, #159, .T. ) ;
#102 = ORIENTED_EDGE ( 'NONE', *, *, #227, .F. ) ;
#103 = CIRCLE ( 'NONE', #15, 0.1999999999999996503 ) ;
#104 = APPLICATION_CONTEXT ( 'configuration controlled 3d designs of mechanical parts and assemblies' ) ;
#105 = ADVANCED_BREP_SHAPE_REPRESENTATION ( '23a1', ( #132, #268 ), #242 ) ;
#106 = CARTESIAN_POINT ( 'NONE',  ( -3.750000000000000000, 0.000000000000000000, 5.199999999999996625 ) ) ;
#107 = DIRECTION ( 'NONE',  ( -0.000000000000000000, -0.000000000000000000, -1.000000000000000000 ) ) ;
#108 = EDGE_CURVE ( 'NONE', #151, #171, #143, .T. ) ;
#109 = DIRECTION ( 'NONE',  ( 1.000000000000000000, 0.000000000000000000, 0.000000000000000000 ) ) ;
#110 = CARTESIAN_POINT ( 'NONE',  ( -6.000000000000000888, 0.000000000000000000, 0.000000000000000000 ) ) ;
#111 = CARTESIAN_POINT ( 'NONE',  ( 0.000000000000000000, 0.000000000000000000, 5.199999999999996625 ) ) ;
#112 = CALENDAR_DATE ( 2022, 20, 6 ) ;
#113 = DIRECTION ( 'NONE',  ( 0.000000000000000000, 0.000000000000000000, 1.000000000000000000 ) ) ;
#114 = AXIS2_PLACEMENT_3D ( 'NONE', #299, #37, #11 ) ;
#115 = DIRECTION ( 'NONE',  ( -1.000000000000000000, 0.000000000000000000, 0.000000000000000000 ) ) ;
#116 = DATE_TIME_ROLE ( 'classification_date' ) ;
#117 = ORGANIZATION ( 'NEURÈENÝ', 'NEURÈENÝ', '' ) ;
#118 = DIRECTION ( 'NONE',  ( 1.000000000000000000, 0.000000000000000000, 0.000000000000000000 ) ) ;
#119 = ADVANCED_FACE ( 'NONE', ( #297 ), #205, .T. ) ;
#120 = CYLINDRICAL_SURFACE ( 'NONE', #92, 3.750000000000000000 ) ;
#121 = CYLINDRICAL_SURFACE ( 'NONE', #78, 3.750000000000000000 ) ;
#122 = VERTEX_POINT ( 'NONE', #182 ) ;
#123 = CIRCLE ( 'NONE', #213, 3.750000000000000000 ) ;
#124 = ORIENTED_EDGE ( 'NONE', *, *, #276, .F. ) ;
#125 = EDGE_CURVE ( 'NONE', #245, #52, #246, .T. ) ;
#126 = APPROVAL_STATUS ( 'not_yet_approved' ) ;
#127 = CARTESIAN_POINT ( 'NONE',  ( 3.949999999999999734, 0.000000000000000000, 5.199999999999996625 ) ) ;
#128 = VERTEX_POINT ( 'NONE', #279 ) ;
#129 = EDGE_CURVE ( 'NONE', #245, #122, #191, .T. ) ;
#130 = APPROVAL_STATUS ( 'not_yet_approved' ) ;
#131 = VERTEX_POINT ( 'NONE', #110 ) ;
#132 = MANIFOLD_SOLID_BREP ( 'Zaoblit1', #20 ) ;
#133 = APPROVAL_ROLE ( '' ) ;
#134 = DIRECTION ( 'NONE',  ( 1.000000000000000000, 0.000000000000000000, 0.000000000000000000 ) ) ;
#135 = APPROVAL_ROLE ( '' ) ;
#136 = CARTESIAN_POINT ( 'NONE',  ( -3.750000000000000000, 0.000000000000000000, 105.0000000000000142 ) ) ;
#137 = PLANE ( 'NONE',  #264 ) ;
#138 = CIRCLE ( 'NONE', #223, 3.949999999999999734 ) ;
#139 = CC_DESIGN_APPROVAL ( #28, ( #281 ) ) ;
#140 = EDGE_CURVE ( 'NONE', #151, #269, #201, .T. ) ;
#141 = FACE_OUTER_BOUND ( 'NONE', #219, .T. ) ;
#142 = DIRECTION ( 'NONE',  ( -0.000000000000000000, -0.000000000000000000, -1.000000000000000000 ) ) ;
#143 = CIRCLE ( 'NONE', #221, 6.000000000000000888 ) ;
#144 = EDGE_CURVE ( 'NONE', #122, #128, #138, .T. ) ;
#145 = ORIENTED_EDGE ( 'NONE', *, *, #276, .T. ) ;
#146 = ORIENTED_EDGE ( 'NONE', *, *, #25, .F. ) ;
#147 = ADVANCED_FACE ( 'NONE', ( #235, #156 ), #173, .T. ) ;
#148 = VECTOR ( 'NONE', #189, 1000.000000000000000 ) ;
#149 = LOCAL_TIME ( 11, 51, 24.00000000000000000, #300 ) ;
#150 = ORIENTED_EDGE ( 'NONE', *, *, #108, .F. ) ;
#151 = VERTEX_POINT ( 'NONE', #34 ) ;
#152 = DIRECTION ( 'NONE',  ( 1.000000000000000000, 0.000000000000000000, -0.000000000000000000 ) ) ;
#153 = APPROVAL_STATUS ( 'not_yet_approved' ) ;
#154 = DIRECTION ( 'NONE',  ( 0.000000000000000000, 0.000000000000000000, 1.000000000000000000 ) ) ;
#155 = COORDINATED_UNIVERSAL_TIME_OFFSET ( 1, 0, .AHEAD. ) ;
#156 = FACE_OUTER_BOUND ( 'NONE', #75, .T. ) ;
#157 =( NAMED_UNIT ( * ) SI_UNIT ( $, .STERADIAN. ) SOLID_ANGLE_UNIT ( ) );
#158 = CARTESIAN_POINT ( 'NONE',  ( 0.000000000000000000, 0.000000000000000000, 105.0000000000000142 ) ) ;
#159 = EDGE_CURVE ( 'NONE', #77, #245, #83, .T. ) ;
#160 = PRODUCT ( '23a1', '23a1', '', ( #204 ) ) ;
#161 = DATE_AND_TIME ( #282, #7 ) ;
#162 = DIRECTION ( 'NONE',  ( 1.000000000000000000, 0.000000000000000000, -0.000000000000000000 ) ) ;
#163 = COORDINATED_UNIVERSAL_TIME_OFFSET ( 1, 0, .AHEAD. ) ;
#164 = CARTESIAN_POINT ( 'NONE',  ( 0.000000000000000000, 0.000000000000000000, 0.000000000000000000 ) ) ;
#165 = DIRECTION ( 'NONE',  ( 1.000000000000000000, 0.000000000000000000, 0.000000000000000000 ) ) ;
#166 = CIRCLE ( 'NONE', #69, 6.000000000000000888 ) ;
#167 = APPROVAL ( #153, 'NEURÈENÝ' ) ;
#168 = AXIS2_PLACEMENT_3D ( 'NONE', #251, #277, #280 ) ;
#169 = CIRCLE ( 'NONE', #29, 6.000000000000000888 ) ;
#170 = ORIENTED_EDGE ( 'NONE', *, *, #267, .T. ) ;
#171 = VERTEX_POINT ( 'NONE', #3 ) ;
#172 = ORIENTED_EDGE ( 'NONE', *, *, #140, .F. ) ;
#173 = PLANE ( 'NONE',  #288 ) ;
#174 = COORDINATED_UNIVERSAL_TIME_OFFSET ( 1, 0, .AHEAD. ) ;
#175 = ORIENTED_EDGE ( 'NONE', *, *, #227, .T. ) ;
#176 = AXIS2_PLACEMENT_3D ( 'NONE', #127, #63, #81 ) ;
#177 = AXIS2_PLACEMENT_3D ( 'NONE', #239, #263, #118 ) ;
#178 = CC_DESIGN_SECURITY_CLASSIFICATION ( #94, ( #100 ) ) ;
#179 = DIRECTION ( 'NONE',  ( 1.000000000000000000, 0.000000000000000000, 0.000000000000000000 ) ) ;
#180 = ORIENTED_EDGE ( 'NONE', *, *, #257, .F. ) ;
#181 = PERSON_AND_ORGANIZATION_ROLE ( 'creator' ) ;
#182 = CARTESIAN_POINT ( 'NONE',  ( 3.949999999999999734, 0.000000000000000000, 4.999999999999998224 ) ) ;
#183 = SECURITY_CLASSIFICATION_LEVEL ( 'unclassified' ) ;
#184 = LINE ( 'NONE', #136, #307 ) ;
#185 = ADVANCED_FACE ( 'NONE', ( #141 ), #56, .F. ) ;
#186 = DIRECTION ( 'NONE',  ( 1.000000000000000000, 0.000000000000000000, 0.000000000000000000 ) ) ;
#187 = DIRECTION ( 'NONE',  ( 0.000000000000000000, 0.000000000000000000, 1.000000000000000000 ) ) ;
#188 = PRODUCT_DEFINITION_SHAPE ( 'NONE', 'NONE',  #281 ) ;
#189 = DIRECTION ( 'NONE',  ( -0.000000000000000000, -0.000000000000000000, -1.000000000000000000 ) ) ;
#190 = VECTOR ( 'NONE', #107, 1000.000000000000000 ) ;
#191 = CIRCLE ( 'NONE', #176, 0.1999999999999996503 ) ;
#192 = ORIENTED_EDGE ( 'NONE', *, *, #298, .F. ) ;
#193 = ORIENTED_EDGE ( 'NONE', *, *, #2, .F. ) ;
#194 = VECTOR ( 'NONE', #47, 1000.000000000000000 ) ;
#195 = ADVANCED_FACE ( 'NONE', ( #48 ), #137, .F. ) ;
#196 = ORIENTED_EDGE ( 'NONE', *, *, #257, .T. ) ;
#197 = ORIENTED_EDGE ( 'NONE', *, *, #144, .F. ) ;
#198 = DIRECTION ( 'NONE',  ( -0.000000000000000000, -0.000000000000000000, -1.000000000000000000 ) ) ;
#199 = CARTESIAN_POINT ( 'NONE',  ( 0.000000000000000000, 0.000000000000000000, 5.000000000000000000 ) ) ;
#200 = SHAPE_DEFINITION_REPRESENTATION ( #188, #105 ) ;
#201 = LINE ( 'NONE', #259, #190 ) ;
#202 = CC_DESIGN_DATE_AND_TIME_ASSIGNMENT ( #260, #116, ( #94 ) ) ;
#203 = DIRECTION ( 'NONE',  ( 1.000000000000000000, 0.000000000000000000, 0.000000000000000000 ) ) ;
#204 = MECHANICAL_CONTEXT ( 'NONE', #248, 'mechanical' ) ;
#205 = CYLINDRICAL_SURFACE ( 'NONE', #71, 6.000000000000000888 ) ;
#206 = DATE_AND_TIME ( #112, #237 ) ;
#207 = DIRECTION ( 'NONE',  ( 0.000000000000000000, 0.000000000000000000, 1.000000000000000000 ) ) ;
#208 = CC_DESIGN_PERSON_AND_ORGANIZATION_ASSIGNMENT ( #90, #65, ( #94 ) ) ;
#209 = PERSON ( 'NEURÈENÝ', 'NEURÈENÝ', 'NEURÈENÝ', ('NEURÈENÝ'), ('NEURÈENÝ'), ('NEURÈENÝ') ) ;
#210 = APPROVAL_PERSON_ORGANIZATION ( #55, #167, #135 ) ;
#211 = CARTESIAN_POINT ( 'NONE',  ( 0.000000000000000000, 0.000000000000000000, 105.0000000000000142 ) ) ;
#212 = CARTESIAN_POINT ( 'NONE',  ( 0.000000000000000000, 0.000000000000000000, 105.0000000000000142 ) ) ;
#213 = AXIS2_PLACEMENT_3D ( 'NONE', #232, #113, #254 ) ;
#214 = DIRECTION ( 'NONE',  ( -0.000000000000000000, -0.000000000000000000, -1.000000000000000000 ) ) ;
#215 = ORIENTED_EDGE ( 'NONE', *, *, #266, .T. ) ;
#216 = ADVANCED_FACE ( 'NONE', ( #67 ), #120, .T. ) ;
#217 = EDGE_LOOP ( 'NONE', ( #102, #101, #270, #32 ) ) ;
#218 = AXIS2_PLACEMENT_3D ( 'NONE', #285, #66, #24 ) ;
#219 = EDGE_LOOP ( 'NONE', ( #180, #99, #30, #146 ) ) ;
#220 = CC_DESIGN_PERSON_AND_ORGANIZATION_ASSIGNMENT ( #18, #258, ( #100 ) ) ;
#221 = AXIS2_PLACEMENT_3D ( 'NONE', #256, #41, #17 ) ;
#222 = ORIENTED_EDGE ( 'NONE', *, *, #159, .F. ) ;
#223 = AXIS2_PLACEMENT_3D ( 'NONE', #85, #43, #179 ) ;
#224 = ORIENTED_EDGE ( 'NONE', *, *, #243, .T. ) ;
#225 = DATE_AND_TIME ( #250, #149 ) ;
#226 = EDGE_LOOP ( 'NONE', ( #150, #8, #74, #192 ) ) ;
#227 = EDGE_CURVE ( 'NONE', #77, #273, #6, .T. ) ;
#228 = COORDINATED_UNIVERSAL_TIME_OFFSET ( 1, 0, .AHEAD. ) ;
#229 = CARTESIAN_POINT ( 'NONE',  ( 0.000000000000000000, 0.000000000000000000, 5.000000000000000000 ) ) ;
#230 = APPROVAL_DATE_TIME ( #161, #9 ) ;
#231 = CC_DESIGN_APPROVAL ( #167, ( #94 ) ) ;
#232 = CARTESIAN_POINT ( 'NONE',  ( 0.000000000000000000, 0.000000000000000000, 5.199999999999996625 ) ) ;
#233 = PERSON_AND_ORGANIZATION ( #209, #117 ) ;
#234 = PRODUCT_RELATED_PRODUCT_CATEGORY ( 'detail', '', ( #160 ) ) ;
#235 = FACE_BOUND ( 'NONE', #72, .T. ) ;
#236 = DIRECTION ( 'NONE',  ( 1.000000000000000000, 0.000000000000000000, 0.000000000000000000 ) ) ;
#237 = LOCAL_TIME ( 11, 51, 24.00000000000000000, #174 ) ;
#238 = CARTESIAN_POINT ( 'NONE',  ( 3.750000000000000000, 4.592425496802573972E-16, 5.199999999999996625 ) ) ;
#239 = CARTESIAN_POINT ( 'NONE',  ( 0.000000000000000000, 0.000000000000000000, 105.0000000000000142 ) ) ;
#240 = AXIS2_PLACEMENT_3D ( 'NONE', #158, #154, #162 ) ;
#241 = DIRECTION ( 'NONE',  ( 1.224646799147353207E-16, 1.000000000000000000, -0.000000000000000000 ) ) ;
#242 =( GEOMETRIC_REPRESENTATION_CONTEXT ( 3 ) GLOBAL_UNCERTAINTY_ASSIGNED_CONTEXT ( ( #292 ) ) GLOBAL_UNIT_ASSIGNED_CONTEXT ( ( #289, #26, #157 ) ) REPRESENTATION_CONTEXT ( 'NONE', 'WORKASPACE' ) );
#243 = EDGE_CURVE ( 'NONE', #273, #52, #184, .T. ) ;
#244 = ORIENTED_EDGE ( 'NONE', *, *, #129, .F. ) ;
#245 = VERTEX_POINT ( 'NONE', #238 ) ;
#246 = CIRCLE ( 'NONE', #114, 3.750000000000000000 ) ;
#247 = ORIENTED_EDGE ( 'NONE', *, *, #25, .T. ) ;
#248 = APPLICATION_CONTEXT ( 'configuration controlled 3d designs of mechanical parts and assemblies' ) ;
#249 = PLANE ( 'NONE',  #240 ) ;
#250 = CALENDAR_DATE ( 2022, 20, 6 ) ;
#251 = CARTESIAN_POINT ( 'NONE',  ( 0.000000000000000000, 0.000000000000000000, 0.000000000000000000 ) ) ;
#252 = CC_DESIGN_PERSON_AND_ORGANIZATION_ASSIGNMENT ( #255, #36, ( #160 ) ) ;
#253 = PERSON_AND_ORGANIZATION ( #209, #117 ) ;
#254 = DIRECTION ( 'NONE',  ( 1.000000000000000000, 0.000000000000000000, 0.000000000000000000 ) ) ;
#255 = PERSON_AND_ORGANIZATION ( #209, #117 ) ;
#256 = CARTESIAN_POINT ( 'NONE',  ( 0.000000000000000000, 0.000000000000000000, 5.000000000000000000 ) ) ;
#257 = EDGE_CURVE ( 'NONE', #52, #128, #103, .T. ) ;
#258 = PERSON_AND_ORGANIZATION_ROLE ( 'creator' ) ;
#259 = CARTESIAN_POINT ( 'NONE',  ( 6.000000000000000888, 7.347880794884120722E-16, 5.000000000000000000 ) ) ;
#260 = DATE_AND_TIME ( #275, #79 ) ;
#261 = CARTESIAN_POINT ( 'NONE',  ( -3.949999999999999734, 4.837354856632044071E-16, 5.199999999999996625 ) ) ;
#262 = CIRCLE ( 'NONE', #53, 3.949999999999999734 ) ;
#263 = DIRECTION ( 'NONE',  ( 0.000000000000000000, 0.000000000000000000, 1.000000000000000000 ) ) ;
#264 = AXIS2_PLACEMENT_3D ( 'NONE', #164, #68, #23 ) ;
#265 = CARTESIAN_POINT ( 'NONE',  ( 6.000000000000000888, 7.347880794884120722E-16, 0.000000000000000000 ) ) ;
#266 = EDGE_CURVE ( 'NONE', #131, #269, #166, .T. ) ;
#267 = EDGE_CURVE ( 'NONE', #171, #151, #169, .T. ) ;
#268 = AXIS2_PLACEMENT_3D ( 'NONE', #59, #38, #109 ) ;
#269 = VERTEX_POINT ( 'NONE', #265 ) ;
#270 = ORIENTED_EDGE ( 'NONE', *, *, #125, .T. ) ;
#271 = ORIENTED_EDGE ( 'NONE', *, *, #267, .F. ) ;
#272 = EDGE_LOOP ( 'NONE', ( #222, #124, #224, #51 ) ) ;
#273 = VERTEX_POINT ( 'NONE', #95 ) ;
#274 = CARTESIAN_POINT ( 'NONE',  ( 0.000000000000000000, 0.000000000000000000, 5.000000000000000000 ) ) ;
#275 = CALENDAR_DATE ( 2022, 20, 6 ) ;
#276 = EDGE_CURVE ( 'NONE', #273, #77, #33, .T. ) ;
#277 = DIRECTION ( 'NONE',  ( 0.000000000000000000, 0.000000000000000000, 1.000000000000000000 ) ) ;
#278 = AXIS2_PLACEMENT_3D ( 'NONE', #96, #187, #165 ) ;
#279 = CARTESIAN_POINT ( 'NONE',  ( -3.949999999999999734, 4.837354856632044071E-16, 4.999999999999998224 ) ) ;
#280 = DIRECTION ( 'NONE',  ( 1.000000000000000000, 0.000000000000000000, 0.000000000000000000 ) ) ;
#281 = PRODUCT_DEFINITION ( 'NEZNÁMÝ', '', #100, #16 ) ;
#282 = CALENDAR_DATE ( 2022, 20, 6 ) ;
#283 = FACE_OUTER_BOUND ( 'NONE', #39, .T. ) ;
#284 = APPROVAL_DATE_TIME ( #21, #28 ) ;
#285 = CARTESIAN_POINT ( 'NONE',  ( 0.000000000000000000, 0.000000000000000000, 5.199999999999996625 ) ) ;
#286 = CC_DESIGN_PERSON_AND_ORGANIZATION_ASSIGNMENT ( #233, #305, ( #100 ) ) ;
#287 = DIRECTION ( 'NONE',  ( -0.000000000000000000, -0.000000000000000000, -1.000000000000000000 ) ) ;
#288 = AXIS2_PLACEMENT_3D ( 'NONE', #274, #54, #152 ) ;
#289 =( LENGTH_UNIT ( ) NAMED_UNIT ( * ) SI_UNIT ( .MILLI., .METRE. ) );
#290 = ADVANCED_FACE ( 'NONE', ( #4 ), #121, .T. ) ;
#291 = EDGE_LOOP ( 'NONE', ( #295, #27 ) ) ;
#292 = UNCERTAINTY_MEASURE_WITH_UNIT (LENGTH_MEASURE( 1.000000000000000082E-05 ), #289, 'distance_accuracy_value', 'NONE');
#293 = ORIENTED_EDGE ( 'NONE', *, *, #144, .T. ) ;
#294 = TOROIDAL_SURFACE ( 'NONE', #31, 3.949999999999999734, 0.2000000000000000111 ) ;
#295 = ORIENTED_EDGE ( 'NONE', *, *, #266, .F. ) ;
#296 = ORIENTED_EDGE ( 'NONE', *, *, #108, .T. ) ;
#297 = FACE_OUTER_BOUND ( 'NONE', #5, .T. ) ;
#298 = EDGE_CURVE ( 'NONE', #171, #131, #98, .T. ) ;
#299 = CARTESIAN_POINT ( 'NONE',  ( 0.000000000000000000, 0.000000000000000000, 5.199999999999996625 ) ) ;
#300 = COORDINATED_UNIVERSAL_TIME_OFFSET ( 1, 0, .AHEAD. ) ;
#301 = FACE_OUTER_BOUND ( 'NONE', #226, .T. ) ;
#302 = CYLINDRICAL_SURFACE ( 'NONE', #60, 6.000000000000000888 ) ;
#303 = APPLICATION_PROTOCOL_DEFINITION ( 'international standard', 'config_control_design', 1994, #248 ) ;
#304 = DIRECTION ( 'NONE',  ( -0.000000000000000000, -0.000000000000000000, -1.000000000000000000 ) ) ;
#305 = PERSON_AND_ORGANIZATION_ROLE ( 'design_supplier' ) ;
#306 = DIRECTION ( 'NONE',  ( -1.000000000000000000, 1.224646799147353454E-16, 0.000000000000000000 ) ) ;
#307 = VECTOR ( 'NONE', #287, 1000.000000000000000 ) ;
ENDSEC;
END-ISO-10303-21;
